Minute Of Decay

Marilyn Manson

Composição de: Marilyn Manson
afinacao: Standard

|-------------------------------
|-------------------------------
|-0--0-0-3--3-3-2-3-2-----------
|---------------------1--1-1-3-- 

|-------------------
|-------------------
|-------------------
|-3-3-3-3-3-3-3-5~-- 

|-------------------
|-------------------
|-------------------
|-3-3-3-3-3-3-3-1~-- 

|-------------------------------
|-------------------------------
|-0--0-0-3--3-3-2-3-2-----------
|---------------------1--1-1-3-- 

|-------------------
|-------------------
|-------------------
|-3-3-3-3-3-3-3-5~-- 

|-------------------
|-------------------
|-------------------
|-3-3-3-3-3-3-3-1~--

|-------------------
|-------------------
|-------------------
|-1~------------0~-- 

|-------------------
|-------------------
|-------------------
|-3-3-3-3-3-3-3-5~-- 

|-------------------
|-------------------
|-------------------
|-3-3-3-3-3-3-3-1~--


|-------------------------------
|-------------------------------
|-0--0-0-3--3-3-2-3-2------
|---------------------1--1-1-3--
Página 1 / 1

Letras e título
Acordes e artista

resetar configurações
OK