Cifra Club

Aprenda

Sweet Dreams Violão

Marilyn Manson

Cifra: Principal (violão e guitarra)
tom: Ab
Introdução (10x)
E|------------------------------------|
B|------------------------------------|
G|------------------------------------|
D|------5---6---5~--------------------|       
A|--3-3---3---3--------6-8-----5-6----|
E|-----------------4-4-----3-3--------|

Parte 1

G#5 (x13) G5 (x2) C5 (x8) G#5 (x7) G5 G#5 (x8) G5 (x8)

Introdução (repete-se por 12 vezes)

Parte 2 (igual à parte 1)

G#5 (x13) G5 (x2) C5 (x8) G#5 (x7) G5 G#5 (x8) G5 (x8)

Parte 3

E|-----|-----|
B|-----|-----|
G|-----|-----|
D|-----|-----|
A|--3--|-----|
E|-----|--4--| 3 vezes

E|-----|--------|
B|-----|--------|
G|-----|--------|
D|-----|--------|
A|--3--|--6-6-6-|
E|-----|--4-4-4-|

Introdução (repete-se por 4 vezes)

Sinos
E|-9-8---|-------|
B|-------|-9---8-|
G|-------|-------|
D|-------|-------|
A|-------|-------|
E|-------|-------| 4 vezes

Introdução (repete-se por 4 vezes)

Parte 4
G#5 (x13) G5 (x2) C5 (x8) G#5 (x7) G5 G#5 (x8) G5 (x8) G#5 (x8) G5 (x8) C5 (x8) G#5 G5 C5

Solo:

E|-----------------|-------------------|-----------------|-------------------|-----------------|-------------------|
B|-1-1---1---1--3/4|-1-1---1---1--3/4/3|-1-1---1---1--3/4|-1-1---1---1--6/7--|-1-1---1---1--3/4|-1-1---1---1--3/4/3|
G|-----3-----------|-----3-------------|-----3-----------|-----3-------------|-----3-----------|-----3-------------|
D|-----------------|-------------------|-----------------|-------------------|-----------------|-------------------|
A|-----------------|-------------------|-----------------|-------------------|-----------------|-------------------|
E|-----------------|-------------------|-----------------|-------------------|-----------------|-------------------|
Composição de Dave Stewart / Marilyn Manson / Twiggy Ramirez
Colaboração e revisão:
  • Roland Sonis
  • Honorio Nunes
8.242 exibições
    • ½ Tom
    • A
    • Bb
    • B
    • C
    • Db
    • D
    • Eb
    • E
    • F
    • F#
    • G
    • Ab
  • Adicionar à lista

    0 comentários

    Ver todos os comentários

    Conseguiu tocar?

    2 Tocaram 0 Ainda não

    Grave um vídeo tocando Sweet Dreams Violão e nos envie!

    00:00 / 00:00
    outros vídeos desta música
    repetir qualidade Automático
    Outros vídeos desta música
    00:00 / 00:00
    Automático

    Cifra Club Pro

    Aproveite o Cifra Club com benefícios exclusivos e sem anúncios
    Cifra Club Pro
    Aproveite o Cifra Club com benefícios exclusivos e sem anúncios
    OK