Cifra Club

Aprenda

The fight song

Marilyn Manson

Cifra: Principal (violão e guitarra)
tom: D
Riff 1 (clean, all other riffs have distortion)
e----12----------------------------------------------
B----------------------------------------------------
G-11-------14-14-14---11-11-----14-14-14-------------
D-11-----9-14-14-14---11-11---9-14-14-14-------------
A-9------7-12-12-12----9--9---7-12-12-12-------------
E--------0--------------------0----------------------

e----------------------------------------------------
B----------------------------------------------------
G-11-11----14-14-14---11-11-----11-9-9---------------
D-11-11--9-14-14-14---11-11---9-11-9-9---------------
A--9--9--7-12-12-12----9--9---7--9-7-7---------------
E--------0--------------------0----------------------

Riff 2A (guitar 1)
e----------------------------------------------------
B----------------------------------------------------
G----------------------------------------------------
D-4-4-2-4/7--4-4-2-4/7--4-4-2-4/-7--4-4-2-4-2-2------
A-4-4-2-4/7--4-4-2-4/7--4-4-2-4/-7--4-4-2-4-2-2------
E-2-2-0-2/5--2-2-0-2/5--2-2-0-2/-5--2-2-0-2-0-0------

Riff 2B (guitar 2)
e--------9^-------9^-------9^-------9^---------------
B--7--7-----7--7-----7--7------7--7------------------
G----------------------------------------------------

Riff 3A (guitar 1)
e------------------------------------------------------------
B------------------------------------------------------------
G-----------------------------7------------------------------
D-9------7------9------7------7-(x8)-9------7------2------3--
A-9-(x8)-7-(x8)-9-(x8)-7-(x8)-5------9-(x8)-7-(x8)-2-(x7)-3--
E-7------5------7------5-------------7------5------0------1--

Riff 3B (guitar 2)
e------------------------------------------------------------
B-10-10-10-10\7-7-7-(x2)-7-7-7-5-7-7--7-7-7-7-7-7\5----------
G------------------------------------------------------------

Riff 4A (guitar 1)
e-----------------------------------
B-----------------------------------
G-----------------------------------
D-10------12--7---------------------
A-10-(x6)-12--7-(x8)----------------
E--8------10--5---------------------

Riff 4B (guitar 2)
e-----------------------------------
B-----------------------------------
G-9^-------9^--7--5--7--(x3)--------
D----7--7---------------------------
A-----------------------------------
E-----------------------------------

Riff 1 (half)
Riff 2A
Riff 1
Riff 3A, 3B
Riff 2A, 2B
Riff 1
Riff 3A, 3B
Riff 2
Riff 4A, 4B
Riff 2A, 2B
Composição de John Lowery / Marilyn Manson
13.684 exibições
    • ½ Tom
    • A
    • Bb
    • B
    • C
    • Db
    • D
    • Eb
    • E
    • F
    • F#
    • G
    • Ab
  • Adicionar à lista

    0 comentários

    Ver todos os comentários

    Conseguiu tocar?

    3 Tocaram 0 Ainda não

    Grave um vídeo tocando The fight song e nos envie!

    00:00 / 00:00
    outros vídeos desta música
    repetir qualidade Automático
    Outros vídeos desta música
    00:00 / 00:00
    Automático

    Cifra Club Pro

    Aproveite o Cifra Club com benefícios exclusivos e sem anúncios
    Cifra Club Pro
    Aproveite o Cifra Club com benefícios exclusivos e sem anúncios
    OK