The nobodies (acoustic)

Marilyn Manson

Composição de: Marilyn Manson
tom: C
This is the acoustic version as performed on the japanese retail
version of Holy Wood. It should be easy to figure out how to play
this acoustic version even if you haven't heard it before.

Tuning: Standard Tuning [EADGBE]



Part 1: Intro & Verse

       Am              C               Em              Am      G
E -|------------------------------------------------------------------|-
B -|----1---1---1---1---1---1---1---1---1-------1-------1---1---1---1-|-
G -|------2-------2-------2-------2-------1-------1-------2-------2---|-
D -|----------------------------------------2-2-----2-----------------|-
A -|--0-------0-------3-------3-----------------------0---------------|-
E -|----------------------------------0-----------------------3-------|-



Part 2: Chorus

| Am x 8 | C x 8 | Em x 8 | Am x 4 | G x 4 |



Part 3: Bridge

| Am x 8 | F x 8 |   repeat 4 times
| E x 1  | tacet |



Strumming Hints (Part 2 & 3):

Strum all chords downwards and use the "upper" 4 strings.
Play chords as open chords.



Fill 1 [2:21]

E -|-----------|-
B -|-----------|-
G -|-----------|-
D -|-0/2-0-----|-
A -|-------3-0-|-
E -|-----------|-



Part 4: Last Verse to Chorus

       Am              C
E -|----------------------------------|-
B -|----1---1---1---1---1---1---1---1-|-
G -|------2-------2-------2-------2---|-
D -|----------------------------------|-
A -|--0-------0-------3-------3-------|-
E -|----------------------------------|-

| Em x 8 | Am x 4 | G x 4 |



Part 5: Outro

| Am x 2 |   repeat 4 times



Song Order

Part1 x 3
Part2 x 2
Part1 x 2
Part2 x 2
Part3
Fill1
Part1 x 2
Part4
Part2
Part5
Página 1 / 1

Letras e título
Acordes e artista

resetar configurações
OK