Cifra Club

Alegria do Senhor

Marine Friesen

Cifra: Principal (violão e guitarra)
tom: G
[Intro] G  F#  E  G  F#  E  F# 

        G        F#         E
E|------------------------------------------------------|
B|------------------------------------------------------|
G|-12-12--12--11-11--11--999999999999-------------------|
D|------------------------------------------------------|
A|------------------------------------------------------|
E|------------------------------------------------------|
        G        F#         E                  F#
E|------------------------------------------------------|
B|------------------------------------------------------|
G|-12-12--12--11-11--11--99999999999911-11-11-11-11-11--|
D|------------------------------------------------------|
A|------------------------------------------------------|
E|------------------------------------------------------|

 C
Alegria do Senhor é minha força
  C           D
A ele eu cantarei
  C
Alegria do Senhor é minha força

G
Te entreguei minha tristeza
G              D
Me deste a Tua alegria

E|-15-14-10------15-14-10-------------------------------|
B|----------12~~----------12~~--------------------------|
G|------------------------------------------------------|
D|------------------------------------------------------|
A|------------------------------------------------------|
E|------------------------------------------------------|
 
D           Am
O mesmo eu jamais serei

G
Te entreguei preocupações
G             D
Me deste a Tua paz

E|-15-14-10------15-14-10-------------------------------|
B|----------12~~----------12~~--------------------------|
G|------------------------------------------------------|
D|------------------------------------------------------|
A|------------------------------------------------------|
E|------------------------------------------------------|

D              Am
O mesmo eu jamais serei

  C       D
(OhOhOOhOOhOO)

E|----------------------------------------------|
B|----------------------------------------------|
G|-1212-11-11--9999999--------------------------|
D|-X--X-X--X---XXXXXXX--------------------------|
A|-1010-9--9---7777777--------------------------|
E|----------------------------------------------|

E|----------------------------------------------|
B|----------------------------------------------|
G|-1212-11-11--9999999--11-11-11-11-------------|
D|-X--X-X--X---XXXXXXX--------------------------|
A|-1010-9--9---7777777--9--9--9--9--------------|
E|----------------------------------------------|

G
Te entreguei todo meu medo
G             D
Me deste o Teu amor
 D             Am
O mesmo eu jamais serei

G
Te entreguei as minhas dúvidas
G             D
Me deste a Tua fé
 D             Am
O mesmo eu jamais serei

 C           Em
Alegria do Senhor é minha força
 C           D
A ele eu cantarei
 C           Em         C  D
Alegria do Senhor é minha força

[Solo]

E|----------------------------------------------------|
B|-8/1010101010-12---8/1010101010-12------------------|
G|-----------------9-----------------11---------------|
D|----------------------------------------------------|
A|----------------------------------------------------|
E|----------------------------------------------------|

     Am                   Em        D
Para sempre vou cantar da Tua alegria
A|-121212121212121212121212121212121212121212121212---|

A|-7777777777777777-5555555555555555------------------|

 C  Em  C  D
(OhOhOOhOOhOO)
00:00 / 00:00
Outros vídeos desta música
Repetir
Outros vídeos desta música
Composição de Daniel Friesen / Marine Friesen
Colaboração e revisão:
  • Leonardo Feelckins
  • Bruna Souza
26.743 exibições
    • ½ Tom
    • A
    • Bb
    • B
    • C
    • Db
    • D
    • Eb
    • E
    • F
    • F#
    • G
    • Ab
  • Adicionar à lista

    0 comentários

    Ver todos os comentários

    Entre para oCifra Club PRO

    Tenha acesso a benefícios exclusivos no App e no Site

    • Chega de anúncios

    • Prioridade de compra em lançamentos

    • Mais recursos no app do Afinador

    • Atendimento Prioritário

    • Descontos nos produtos Cifra Club

    • Ajude a produzir mais conteúdo

    00:00 / 00:00

    Cifra Club Pro

    Aproveite o Cifra Club com benefícios exclusivos e sem anúncios
    Cifra Club Pro
    Aproveite o Cifra Club com benefícios exclusivos e sem anúncios
    OK