Mario and Luigi: Partners in Time - Star Hill

Mario Bros

tom: D
E |---------9------8----|--L--------6----8----|--9--8--6--8--L--------|
B |---------------------|---------------------|-----------------------|
G |--8------------------|---------------------|-----------------------|
D |---------------------|---------------------|-----------------------|
A |---------------------|---------------------|-----------------------|
E |---------------------|---------------------|-----------------------|

--L--------6----8----|--9--11--9--8--L----------|---------------------|
---------------------|------------------6-------|-----------6----7----|
---------------------|---------------------6----|--L------------------|
---------------------|--------------------------|---------------------|
---------------------|--------------------------|---------------------|
---------------------|--------------------------|---------------------|

---------------------|-------------------|-------------------|
--6------------------|-------------------|-------------------|
---------6------8----|--L----------------|-------------------|
---------------------|-------------------|-------------------|
---------------------|-------------------|-------------------|
---------------------|-------------------|-------------------|

-------------------|-------------------|----------------------||
-------------------|-------------------|----------------------||
-------------------|-------------------|-----------10--------*||
-------------------|-------------------|---------------------*||
-------------------|-------------------|----------------------||
-------------------|-------------------|----------------------||

---------------8----|--9------------------|----------------------|
--------------------|---------------------|----------------------|
--------------------|---------6------L----|--L--------8----10----|
--------------------|---------------------|----------------------|
--------------------|---------------------|----------------------|
--------------------|---------------------|----------------------|

----------------------|-------------------|--9------------------|
--7------9------11----|--9----------------|---------------------|
----------------------|-------------------|---------6------L----|
----------------------|-------------------|---------------------|
----------------------|-------------------|---------------------|
----------------------|-------------------|---------------------|

----------------------|----------------------|--------------------|
----------------------|--7------9------11----|--13----------------|
--L--------8----10----|----------------------|--------------------|
----------------------|----------------------|--------------------|
----------------------|----------------------|--------------------|
----------------------|----------------------|--------------------|

-------------------|-------------------|-------------------|
-------------------|-------------------|-------------------|
-------------------|-------------------|-------------------|
-------------------|-------------------|-------------------|
-------------------|-------------------|-------------------|
-------------------|-------------------|-------------------|

--------------------||
--------------------||
-------------------*||
-------------------*||
--------------------||
--------------------||

E |-------------------|-------------------|-------------------|
B |-------------------|-------------------|-------------------|
G |-------------------|-------------------|-------------------|
D |-------------------|-------------------|-------------------|
A |-------------------|-------------------|-------------------|
E |-------------------|-------------------|-------------------|

-------------------|-------------------|-------------------|-------------------|
-------------------|-------------------|-------------------|-------------------|
-------------------|-------------------|-------------------|-------------------|
-------------------|-------------------|-------------------|-------------------|
-------------------|-------------------|-------------------|-------------------|
-------------------|-------------------|-------------------|-------------------|

------------------6--|--8------9----8--6--8--|---------11--13--9---------|
---------------9-----|-----------------------|--------------------11--9--|
---------------------|-----------------------|---------------------------|
---------------------|-----------------------|---------------------------|
---------------------|-----------------------|---------------------------|
---------------------|-----------------------|---------------------------|

---------8--9--8--6--8--|--------------------||-------------------|
------------------------|--------------------||-------------------|
------------------------|-------------------*||-------------------|
------------------------|-------------------*||-------------------|
------------------------|--------------------||-------------------|
------------------------|--------------------||-------------------|

Página 1 / 1

Letras e título
Acordes e artista

resetar configurações
OK