Mario Party 3 - Let's Get a Move On

Mario Bros

tom: D
E |---------10-9-7---------------------------
B |--10------------10-8--10-----8-7---8p7----
G |------7-------------------7------------9--
D |------------------------------------------
A |------------------------------------------
E |------------------------------------------

E |---------10-9-10-12-----14---------14--15p14-12--
B |--10-----------------10-----15-------------------
G |------7-------------------------14---------------
D |-------------------------------------------------
A |-------------------------------------------------
E |-------------------------------------------------

E |---------10-9-7---------------------------
B |--10------------10-8--10-----8-7---8p7----
G |------7-------------------7------------9--
D |------------------------------------------
A |------------------------------------------
E |------------------------------------------

E |---------10-9-10-12-----14------14-17---15-14-12--
B |--10-----------------10-----15--------------------
G |------7-------------------------------------------
D |--------------------------------------------------
A |--------------------------------------------------
E |--------------------------------------------------

Página 1 / 1

Letras e título
Acordes e artista

resetar configurações
OK