Mario Theme

Mario Bros

tom: F
E|--------------|   E|-----------------------5------------|
B|--5-5-5---5-8-|   B|-------------------6-8---6-8-5------|
G|--------5-----|   G|---5---------------------------5-7-4|   (2x)
D|-------------5|   D|-----5---7-9-8-7-5------------------|
A|--------------|   A|-------7----------------------------|
E|--------------|   E|------------------------------------|

E|------------------------------------8-8-8-----------------------------------|
B|---8-7-6---5--------------8-7-5---6-------8-7-6---6-------------------------|
G|---------8-------5---5-7--------8---------------8-------5---5-7--8-7-5------|
D|-------------5h7---7--------------------------------5h7---7-----------------|
A|----------------------------------------------------------------------------|
E|----------------------------------------------------------------------------|

E|----------------------------------------------------|
B|----------------------------------------------------|
G|---5-5-5---5-7----------5-5-5--5-7----5-5-5---5-7---|
D|---------7-----7-6-5-------7-----------7-----7-6-5--|
A|----------------------------------------------------|
E|----------------------------------------------------|

E|-------------------------------------|
B|-------------8---------6-6-6-5-------|
G|---7-7-7---7-----5---7---------7-5---|
D|---------7-----5---5-----------------|
A|-------------------------------------|
E|-------------------------------------|

Página 1 / 1

Letras e título
Acordes e artista

resetar configurações
OK