Mario World

Mario Bros

Composição de: Koji Kondo
tom: F
E|----------------------------------------------------------------------------------------------------
B|10------------------------------13-10-------10--------------------------11-10----------------
G|--10-----10-10---------10-------------12------10------10-10-------------------12-10-------
D|---10-12------12-10-12--------------------------10-12--------12-10-12------------------------
A|-------------------------------------------------------------------------------------------------
E|----------------------------------------------------------------------------------------------------

E|----------------------------------------------------------------------------------------------------
B|-10-------------------------------------------------10--------------------------------------12--
G|-----10------13-10----13-10-------13-12---------10------13--10--13p10---------------
D|---------10----------------------10----------------------10------------------------10----------
A|----------------------------------------------------------------------------------------------------
E|----------------------------------------------------------------------------------------------------

Página 1 / 1

Letras e título
Acordes e artista

resetar configurações
OK