New Super Mario Bros - World 1-1

Mario Bros

tom: D
E |-------5-----3-4-5-----------5----7-7-6-5-
B |-5-6-8-----5-----------5-6-8--------------
G |------------------------------------------
D |------------------------------------------
A |------------------------------------------
E |------------------------------------------

E |---------------1-3---------------5-5-4-3--
B |---5-6-8---3-5-----------5-6-8------------
G |-7---------------------7------------------
D |------------------------------------------
A |------------------------------------------
E |------------------------------------------

E |-------5-----3-4-5-----------5-6-5--------
B |-5-6-8-----5-----------5-6-8--------------
G |------------------------------------------
D |------------------------------------------
A |------------------------------------------
E |------------------------------------------

E |---5-7-8-10--5-7-8-10---8-10-12-12-8------------
B |-8-----------------------------------8-11-11-10-
G |------------------------------------------------
D |------------------------------------------------
A |------------------------------------------------
E |------------------------------------------------

E |-----5-7-8-10--5-7-8-10----12-------------
B |-8----------------------------13----------
G |------------------------------------------
D |------------------------------------------
A |------------------------------------------
E |------------------------------------------

Página 1 / 1

Letras e título
Acordes e artista

resetar configurações
OK