Cifra Club

Aprenda

Amor I Love You

Marisa Monte

Cifra: Versão 2 (violão e guitarra)
Já pensou em usar uma coleção de roupas do Cifra Club? Responda as perguntas abaixo e nos ajude nessa missão! →
tom: D
e|-----0--2--0------------------------------------------
B|---3---------3----------------------------------------
G|---------------2-----2--------------------------------
D|------------------4-----------------------------------
A|------------------------------------------------------
E|------------------------------------------------------

e|------0--2--0-----------------------------------------
B|---3----------3---2-----------------------------------
G|----------------2-------------------------------------
D|------------------------------------------------------
A|------------------------------------------------------
E|------------------------------------------------------

e|------------------------------------------------------
B|--0--2--3--2--0---------------------------------------
G|------------------------------------------------------
D|------------------------------------------------------
A|------------------------------------------------------
E|------------------------------------------------------

e|--0--2--3--2--0---------------------------------------
B|------------------------------------------------------
G|------------------------------------------------------
D|------------------------------------------------------
A|------------------------------------------------------
E|------------------------------------------------------

e|--0--2--3--2--0--2------------------------------------
B|------------------------------------------------------
G|--------------------2---------------------------------
D|------------------------------------------------------
A|------------------------------------------------------
E|------------------------------------------------------

e|------------------------------------------------------
B|------------------------------------------------------
G|---2--1--0--------------------------------------------
D|------------------------------------------------------
A|------------------------------------------------------
E|------------------------------------------------------

e|---------0--------------------------------------------
B|---3--2-----------------------------------------------
G|------------------------------------------------------
D|------------------------------------------------------
A|------------------------------------------------------
E|------------------------------------------------------

e|------------------------------------------------------
B|------------------------------------------------------
G|------------------------------------------------------
D|------3-----------------------------------------------
A|------------------------------------------------------
E|------------------------------------------------------

e|------------------------------------------------------
B|------------------------------------------------------
G|---2--1--0--------------------------------------------
D|------------------------------------------------------
A|------------------------------------------------------
E|------------------------------------------------------

e|------------------------------------------------------
B|---3--2--0--3-----------------------------------------
G|------------------------------------------------------
D|------------------------------------------------------
A|------------------------------------------------------
E|------------------------------------------------------

~> SOLO NÚMERICO DA MÚSICA <~

23 10 12 10 23 32 44 32
23 10 12 10 23 32 22
20 22 23 22 20
10 12 13 12 10
10 12 13 12 10 12 32
32 31 30
23 22 10 43
32 31 30
23 22 10 23
Composição de Carlinhos Brown / Marisa Monte
Colaboração e revisão:
  • Aline
26.208 exibições
    • ½ Tom
    • A
    • Bb
    • B
    • C
    • Db
    • D
    • Eb
    • E
    • F
    • F#
    • G
    • Ab
  • Adicionar à lista

    0 comentários

    Ver todos os comentários

    Conseguiu tocar?

    2 Tocaram 1 Ainda não

    Grave um vídeo tocando Amor I Love You e nos envie!

    00:00 / 00:00
    Outros vídeos desta música
    Repetir Qualidade Automático
    Outros vídeos desta música
    00:00 / 00:00
    Automático

    Cifra Club Pro

    Aproveite o Cifra Club com benefícios exclusivos e sem anúncios
    Cifra Club Pro
    Aproveite o Cifra Club com benefícios exclusivos e sem anúncios
    OK