Girls Like You

Maroon 5

Composição: Adam Levine / Cirkut / Jason Evigan / Starrah
Tom: C
[Intro]

[TAB - Intro]

Parte 1 de 3
E|-----------------------------------------------------|
B|-----------------------------------------------------|
G|-----------------------------------------------------|
D|---x-x-x-5-5-5-5-x-3-x-x-2---------------------------|
A|-3---------------------------------------------------|
E|-----------------------------------------------------|

Parte 2 de 3
E|-----------------------------------------------------|
B|-----------------------------------------------------|
G|-------------------2-x-x-----------------------------|
D|---x-x-x-5-5-5-5-x-------2---------------------------|
A|-3---------------------------------------------------|
E|-----------------------------------------------------|

Parte 3 de 3
E|-----------------------------------------------------|
B|-----------------------------------------------------|
G|-----------------------------------------------------|
D|---x-x-x-5-5-5-5-x-3-x-x-2---x-2-2-x-----x-2-2-x-----|
A|-3-------------------------5---------5-5---------5---|
E|-----------------------------------------------------|

[Primeira Parte]

       C
Spent 24 hours
        G                  Am  F
I need more hours with you
                C
You spent the weekend 
        G         Am  F
Getting even, ooh
              C
We spent the late nights 
         G                  Am  F
Making things right between us
             C
But now it's all good, babe
           G
Roll that Backwood, babe
            Am       F
And play me    close

[TAB - Dedilhado primeira parte]

   C   G   Am  F
E|------------------------------------------|
B|-1---0---1---1----------------------------|
G|-0---0---2---2----------------------------|
D|-2---0---2---3----------------------------|
A|-3-------0--------------------------------|
E|-----3-------1----------------------------|

[Refrão]
        
        C
'Cause girls like you 
                 G
Run 'round with guys like me
                   Am
'Til sun down when I come through
          F
I need a girl like you, yeah yeah

 C
Girls like you 
               G
Love fun, and yeah, me too
                 Am
What I want when I come through
          F                       C
I need a girl like you, yeah yeah

           G               Am
Yeah yeah yeah, yeah yeah yeah
          F                       C
I need a girl like you, yeah yeah
           G               Am
Yeah yeah yeah, yeah yeah yeah
          F
I need a girl like you

[TAB - Dedilhado Refrão da terceira estrofe]

   C         G         Am       F
E|-0-x-0-0-0-1-x-1-1-1-0-x-0-0-0-1-x-1-1-1--|
B|-1-x-1-1-1-0-x-0-0-0-1-x-1-1-1-1-x-1-1-1--|
G|-0-x-0-0-0-0-x-0-0-0-2-x-2-2-2-1-x-1-1-1--|
D|-2-x-2-2-2-0-x-0-0-0-2-x-2-2-2-2-x-2-2-2--|
A|-3-x-3-3-3-2-x-2-2-2-0-x-0-0-0-2-x-2-2-2--|
E|---x-------3-x-3-3-3---x-------1-x-1-1-1--|
   . . ↓ ↓ ↑ . . ↓ ↓ ↑ . . ↓ ↓ ↑ . . ↓ ↓ ↑

[Segunda Parte]

         C
I spent last night 
        G                 Am  F
On the last flight to you
              C
Took a whole day up 
           G          Am  F
Tryna get way up, ooh
              C
We spent the daylight 
             G                  Am  F           
Tryna make things right between us
             C
But now it's all good, babe
           G
Roll that Backwood, babe
            Am       F
And play me    close

[Refrão]
        
        C
'Cause girls like you 
                 G
Run 'round with guys like me
                   Am
'Til sun down when I come through
          F
I need a girl like you, yeah yeah

 C
Girls like you 
               G
Love fun, and yeah, me too
                 Am
What I want when I come through
          F                       C
I need a girl like you, yeah yeah

           G               Am
Yeah yeah yeah, yeah yeah yeah
          F                       C
I need a girl like you, yeah yeah
           G               Am
Yeah yeah yeah, yeah yeah yeah
          F                       C  G
I need a girl like you, yeah yeah
Am           F                       C
   I need a girl like you, yeah yeah
G  Am           F
      I need a girl like you

[Terceira Parte]
C
  Maybe it's 6:45
G
  Maybe I'm barely alive
Am
   Maybe you've taken my shit 
         F
For the last time, yeah
C
  Maybe I know that I'm drunk
G
  Maybe I know you're the one
Am
   Maybe you're thinking 
                F
It's better if you drive

[TAB - Dedilhado terceira parte]

   C   G   Am  F   C   G   Am  F
E|------------------------------------------|
B|-1---0---1---1---1---0---1---1------------|
G|------------------------------------------|
D|------------------------------------------|
A|-3-------0-------3-------0----------------|
E|---x-3-x---x-1-x---x-3-x---x-1-x--x-------|

[Refrão]

            C
Oh, 'cause girls like you 
                 G
Run 'round with guys like me
                   Am
'Til sun down when I come through
          F
I need a girl like you, yeah

[Quarta Parte]

 C
Not too long ago

I was dancing for dollars
 G
No, it's really rude 

If I let you meet my mama
 Am
You don't want a girl 

Like me I'm too crazy
    F
For every other girl 

You meet its fugazy
C
  I'm sure them other girls 

Were nice enough
G
  But you need someone to spice it up
Am
   So who you gonna call? Cardi, Cardi
 F
Come and rev it up like Harley, Harley
  C
Why is the best fruit always forbidden?
     G
I'm coming to you now 

Doin' 20 over the limit
     Am
The red light, red light stop, stop 
          F
I don't play when it comes to my heart

(Let's get it though)
C
I don't really want 

A white horse and a carriage
G
  I'm thinkin' more of a white Porsches 

And karats
   Am
I need you right here 

'Cause every time you call
    F
I play with this kitty like you play

With your guitar

[Refrão Final]

        C
'Cause girls like you 
                 G
Run 'round with guys like me
                   Am
'Til sun down when I come through
          F
I need a girl like you, yeah yeah
 C
Girls like you 
               G
Love fun, and yeah, me too
                 Am
What I want when I come through
          F                       C
I need a girl like you, yeah yeah
           G               Am
Yeah yeah yeah, yeah yeah yeah
          F                       C
I need a girl like you, yeah yeah
           G               Am
Yeah yeah yeah, yeah yeah yeah
          F             C
I need a girl like you
           G               Am
Yeah yeah yeah, yeah yeah yeah
          F             C  G  Am  F  C
I need a girl like you
Página 1 / 1

Letras e título
Acordes e artista

resetar configurações
OK