Wasted Years

Maroon 5

Composição: Adam Levine
Tabbed By : tom286

Tuning: Standard

Intro
G|---------------------------------------------------------------------------|
D|---------------------------------------------------------------------------|
A|---------------------------------------------------------------------------|
E|3-3-x-3-3-x-3-3-x-3-3------------------------------------------------------|

Verse
G|---------------------------------------------------------------------------|
D|-----------------------------------------------------3-2-3-2-3-------------|
A|----------------3-5-5-3-5-3-5-3-5-7-5-5-3-5-3-5----------------------------|
E|5-5-3-5-3-5-3-5---------------------------------3-3-5----------------------|

Chorus
G|----------------------|----------------------------------------------------|
D|----------------------|----------------------------------------------------|
A|----------------------|----------------------------------------------------|
E|-----8-8-7-5-5-5-5----|--0-0-0-0-0-0-0-0-----------------------------------|

Break 1
G|---------------------------------------------------------------------------|
D|----------------3-2-3-2-3--------------------------------------------------|
A|--3-5-5-7-5----------------------------------------------------------------|
E|5----------3-3-5-----------------------------------------------------------|

Break 2
G|---------------------------------------------------------------------------|
D|----------5----------------------------------------------------------------|
A|----5-7-8---5-7-8----------------------------------------------------------|
E|---------------------------------------------------------------------------|


| /  slide up
| \  slide down
| h  hammer-on
| p  pull-off
| ~  vibrato
| +  harmonic
| x  Mute note
===============================================================================
Página 1 / 1

Letras e título
Acordes e artista

resetar configurações
OK