Average Man

Maroon Town

Composição de: Maroon Town
Transcriber: *

V1

G------|------------------|------------------------|
D------|-0--0-------------|-0--3--0----------------|
A-0--3-|-------3--0--0--3-|----------3--0-----0--3-|
E------|------------------|------------------------|

G------------------|---------------------|------------------------|
D-0--0-------------|-0--3--0-------------|------------------------|
A-------3--0--0--3-|----------3--0--0----|-------------0--0--0----|
E------------------|-------------------4-|-3--3--3--3-----------4-|

G------------------------|----------0--0-------------|
D------------------------|-0--0--3--------3--0--3--0-|
A----------------0--0--3-|---------------------------|
E-3--3--3--3--4----------|---------------------------|


The Music:

Intro

V1 x1  

V1 x1  (Verse 1)

V1 x1  (Chorus)

V1 x1

V1 x1  (Verse 2)

V1 x1  (Chorus)

V1 x3  (solos)

V1 x1  (Verse 3)

V1 x4  (Chorus x4)

Página 1 / 1

Letras e título
Acordes e artista

resetar configurações
OK