Appetite

Marvelous 3

Composição de: Butch Walker
tom: A
#-----------------------------------------------------------------------------#


Album: Math and other problems
Transcribed by: Dustin Larrabee&MarkWerchowski
Email: *

Very 80's song, by one of my fav bands
this is pretty much the whole song, figure out the rhytmn
and this should help you

------------------------------------------------------------------------------
------------------------------------------------------------------------------
-------9//6---7-----------9---6/7---^6----------------------------------------
-------7------7------0----0---0-0---------------------------------------------
---0--------------------------------------------------------------------------
--------------7---------------------------------------------------------------
 Intro, and chorus                                                            

------------------------------------------------------------------------------
------------------------------------------------------------------------------
---------------------44444444444444---77777777777777777-----------------------
-------7777777777----44444444444444---77777777777777777-----------------------
-------7777777777----22222222222222---55555555555555555-----------------------
-------5555555555-------------------------------------------------------------
 verse "DOnt make a fuss."  palm mute it all                                  

------------------------------------------------------------------------------
------------------------------------------------------------------------------
---4-5--7--9xxx9--------------------------------------------------------------
---4-5--7--9xxx9--------------------------------------------------------------
---2-3--5--7xxx7--------------------------------------------------------------
------------------------------------------------------------------------------
 Pre chorus  "Take a fork and tear it apart    once again palm mute           
Página 1 / 1

Letras e título
Acordes e artista

resetar configurações
OK