Cifra Club

Aprenda

Retail Girl

Marvelous 3

Cifra: Principal (violão e guitarra)
tom: E
   Album: Math And Other Problems 
   Transcribed by: Dustin Larrabee 
   Email: * 

   Rad song, a good song to just rock out too 

   ----------------|----------0-----------------0-------------------------------- 
   ----------------|----------------------2-------------------------------------- 
   -----^2---------|--------2-------2-------------------------------------------- 
   -2--------------|------2-----2-----------2------------------------------------ 
   -2-------3/^5---|----0--------------0----------------------------------------- 
   -0--------------|--0---------------0------------------------------------------ 
   intro verse basically just pick and A chord like so 

   ------------------------------------------------------------------------------ 
   ------------------------------------------------------------------------------ 
   ----7----5/4--------7-5/4/5--------------------------------------------------- 
   ----7----5/4---7----7-5/4-5--------------------------------------------------- 
   ----5----3/2---7----5-3/2-3--------------------------------------------------- 
   ---------------5-------------------------------------------------------------- 
   Pre chorus 1 repeat 2x 

   ------------------------------------------------------------------------------ 
   ------------------------------------------------------------------------------ 
   ---5--7-------4-6-7-9--------------------------------------------------------- 
   ---5--7-------4-6-7-9--------------------------------------------------------- 
   ---3--5-------2-4-5-7--------------------------------------------------------- 
   ------------------------------------------------------------------------------ 
   Pre Chorus 2 "AND I'M!" 

   ------------------------------------------------------------------------------ 
   ------------------------------------------------------------------------------ 
   --------------------------------10/9/7/555555/777777-------------------------- 
   --5555---77777--5555-7777-------10/9/7/555555/777777-------------------------- 
   --5555---77777--5555-7777-------8/-7/5/333333/555555-------------------------- 
   --3333---55555--3333-5555----------------------------------------------------- 
   Chorus 

   ---------------------0-----------0-------------------------------------------- 
   -------------------2----------2----------------------------------------------- 
   -----2----------2-----------2------------------------------------------------- 
   --2--2--------2----------2---------------------------------------------------- 
   --2--0-------0--------0------------------------------------------------------- 
   --0--------------------------------------------------------------------------- 
   palm mute this E To A then back to verse 


   ------------------------------------------------------------------------------ 
   ------------------------------------------------------------------------------ 
   ---5--7-------4-6-7-9--------------------------------------------------------- 
   ---5--7-------4-6-7-9--------------------------------------------------------- 
   ---3--5-------2-4-5-7--------------------------------------------------------- 
   ------------------------------------------------------------------------------ 
   Pre Chorus 2 "AND I'M!" 

   ------------------------------------------------------------------------------ 
   ------------------------------------------------------------------------------ 
   --------------------------------10/9/7/555555/777777-------------------------- 
   --5555---77777--5555-7777-------10/9/7/555555/777777-------------------------- 
   --5555---77777--5555-7777-------8/-7/5/333333/555555-------------------------- 
   --3333---55555--3333-5555----------------------------------------------------- 
   Chorus 

   This should give u the idea of the song 
Composição de Butch Walker
190 exibições
    • ½ Tom
    • A
    • Bb
    • B
    • C
    • Db
    • D
    • Eb
    • E
    • F
    • F#
    • G
    • Ab
  • Adicionar à lista

    0 comentários

    Ver todos os comentários

    Conseguiu tocar?

    0 Tocaram 0 Ainda não

    Grave um vídeo tocando Retail Girl e nos envie!

    00:00 / 00:00
    outros vídeos desta música
    repetir qualidade Automático
    Outros vídeos desta música
    00:00 / 00:00
    Automático

    Cifra Club Pro

    Aproveite o Cifra Club com benefícios exclusivos e sem anúncios
    Cifra Club Pro
    Aproveite o Cifra Club com benefícios exclusivos e sem anúncios
    OK