Cifra Club

Aprenda

Hana (Flower)

Masaaki Kishibe

Cifra: Principal (violão e guitarra)
tom: B (forma dos acordes no tom de A) Capotraste na 2ª casa
D ||----------------------|--------------------------|
A ||----------------------|--------------0--------0--|
F#||----------------------|--0--------0--------0-----|
D ||-----------0h----2----|-----0--2--------2--------|
A ||----------------------|--------------------------|
D ||----------------------|--0-----------4-----------|

-----------0--------------|--------------------------|
--4-----------2-----0-----|--2--------2--0--------0--|
--------0--------0--------|--------0-----------0-----|
-----0-----------------0--|-----0-----------2--------|
--2-----------0-----------|--------------------------|
--------------------4-----|--5-----------4-----------|

--------------------------|--------------------------|
--------------------------|--------------0--------0--|
--1--0--------------------|--0--------0--------0-----|
--------2--0--2----0h--2--|-----0--2--------2--------|
--------------0-----------|--------------------------|
--2-----------------------|--0-----------4-----------|

-----------0--4--2h-4p-2-0-----|-----------------0--2-----|
--4-------------------------0--|--2--------2--4--------0--|
--------0----------------------|--------0-----------------|
-----0-------------------------|-----0--------------------|
--2-----------0----------------|--------------0-----------|
-------------------------------|--5-----------------------|

--0-----------------------||----------------------------|
-----------0--------------||---0------------0--------0--|
--------1-----0----0h--1--||*--------0h--1--------0-----|
-----0-------------0h--2--||*-----0--0h--2-----2--------|
--------------------------||----------------------------|
--0-----------0-----------||---0------------4-----------|

-----------0--------------|--------------------------|
--4-----------2-----0-----|--2--------2--0--------0--|
--------0--------0--------|--------0-----------0-----|
-----0-----------------0--|-----0-----------2--------|
--2-----------0-----------|--------------------------|
--------------------4-----|--5-----------4-----------|

-------------------------------|---------------------------|
-------------------------------|--0------------0--------0--|
--1--0h-1p-0------------0h--1--|--------0h--1--------0-----|
-------------2--0--2----0h--2--|-----0--0h--2-----2--------|
-------------------0-----------|---------------------------|
--2----------------------------|--0------------4-----------|

-----------0--4--2h-4p-2p-0-----|-----------------0--2-----|
--4--------------------------0--|--2--------2--4--------0--|
--------0-----------------------|--------0-----------------|
-----0--------------------------|-----0--------------------|
--2-----------0-----------------|--------------0-----4-----|
--------------------------------|--5-----------------------

--0----------------0--0--|--0--------0--------------|
-----------0-------------|--0-----------4-----0-----|
--------1-----0----------|--0-----0-----0--0--------|
-----0-------------------|-----0-----------------0--|
-------------------------|--2-----------0-----------|
--0-----------0----------|--------------------------|

---------------------------|--------------------------|
--2--------2--0------------|--2--------2--0-----------|
--------0---------------0--|--------0-----------1-----|
-----0-----------0h--2-----|-----0-----------2-----2--|
---------------------------|--------------0-----------|
--5-----------0------------|--5-----------------------|

---------------------------|--0--------0--------------|
---------------------------|--2-----------4-----0-----|
--1-----0-----0---------0--|--0-----0-----------------|
-----0-----0-----0h--2-----|-----0-----------0-----0--|
--------------3------------|--------------------------|
--0------------------------|--5-----------5-----------|

-----0--2-----0-----------|--------0-----4-----2--0--|
--4--------4-----------0--|--2-----------------------|
--3-----------------0-----|--1-----------2-----------|
-----------------0--------|-----0-----0-----0--------|
--------------2-----------|--------------------------|
--4-----------------------|--2-----------2-----------|

--2------------------------|---------------------------|
---------------0-----------|--0------------0--------0--|
--------0h--1-------0h--1--|--------0h--1--------0-----|
-----2--------------0h--2--|-----0--0h--2-----2--------|
--0------------0-----------|---------------------------|
---------------------------|--0------------4-----------|

-----------0--7--4h-7p-4p-0-----|-----------------0--2-----|
--4--------------------------0--|--2--------2--4--------0--|
--------0-----------------------|--------0--------------0--|
-----0--------------------------|-----0--------------------|
--2-----------0-----------------|--------------0-----4-----|
--------------------------------|--5-----------------------|

--0-----------0----4--4--|--4-----------------------|
--------2-----0----------|--5--------5-----------4--|
--------1-----0----------|--0-----0-----------0-----|
-----0-----0-------------|-----0-----------0--------|
-------------------------|--------------------------|
--0-----------0----------|--5-----------5-----------|

--7---------5--4--2h-4p-2p-0-----|--4-----------------------|
-----4s--2--2--0--------------0--|-----------5-----------4--|
---------------------------------|--------0-----------0-----|
------------------0--------------|-----0-----------0--------|
---------------------------------|--------------------------|
--0------------0--------------4--|--5-----------5-----------|

--------------------------|--4-----------------------|
--------0-----------------|--5--------5-----------4--|
-----5--3--1--0-----------|--0-----0-----------0-----|
-----------------2--0-----|-----0-----------0--------|
-----------------------0--|--------------------------|
--0-----------------------|--5-----------5-----------|

--7---------5--4-----2-----|--0--------0--2-----0--2--|
-----4s--2--2--0--0-----0--|--------------------------|
---------------------------|--------0-----------------|
---------------0-----------|-----0-----------2--------|
---------------------4-----|--2-----------1-----------|
--0------------------------|--------------------------|

--4h-5p-4p-0-------------------|--------0-----4s--2--0h--2--|
--------------0--2----------0--|--2-------------------------|
-----------------------0-------|--0-----------3s--1--0h--1--|
--------------------0----------|-----0-----0--0-------------|
--0----------------------------|----------------------------|
-----------------6-------------|--5-------------------------|

--0----------0------------||---------------0--5--4h-5p-4p-0h-2--|
--------2----0------------||------2-----------------------------|
--0--0--1----0----0h--1--*||------------0-----------------------|
------------------0h--2--*||---------0--------------------------|
--------------------------||------------------0-----------------|
--0----------0------------||------5-----------------------------|

-----0--------------------|----------------------||
--------4-----0-----------|----------------------||
-----------5--------0-----|----------------------||
-----------------5-----2--|--2h----4-------------||
--------------------------|--0-------------------||
--0-----------------------|--0-------------------||

Composição de Masaaki Kishibe
Colaboração e revisão:
  • Jonathan Pessoa
438 exibições
    • ½ Tom
    • A
    • Bb
    • B
    • C
    • Db
    • D
    • Eb
    • E
    • F
    • F#
    • G
    • Ab
  • Adicionar à lista

    0 comentários

    Ver todos os comentários

    Conseguiu tocar?

    0 Tocaram 0 Ainda não

    Grave um vídeo tocando Hana (Flower) e nos envie!

    00:00 / 00:00
    outros vídeos desta música
    repetir qualidade Automático
    Outros vídeos desta música
    00:00 / 00:00
    Automático

    Cifra Club Pro

    Aproveite o Cifra Club com benefícios exclusivos e sem anúncios
    Cifra Club Pro
    Aproveite o Cifra Club com benefícios exclusivos e sem anúncios
    OK