Cifra Club

Aprenda

Cereal Metal

Massacration

Cifra: Principal (violão e guitarra)
tom: C
ESSE AKI EH U VERSO =]
E|---------------------------------
B|---------------------------------
G|---------------------------------
D|---------9-9-9-9-7--9-9-10-12----
A|---------7-7-7-7-5--7-7-8--10----
E|---------------------------------

AKI VAI U REFRAO

E|-----------------------------------
B|-----------------------------------
G|-----------------------------------
D|----------------9-9-7--9-9-10-12-----
A|--777--55--33---7-7-5--7-7-8--10-----
E|--555--33--11-----------------------

o solo ñ tirei!=/
vlw galera!!!
Compositor não encontrado.
Colaboração e revisão:
  • Ricardo
27.657 exibições
    • ½ Tom
    • A
    • Bb
    • B
    • C
    • Db
    • D
    • Eb
    • E
    • F
    • F#
    • G
    • Ab
  • Adicionar à lista

    0 comentários

    Ver todos os comentários

    Conseguiu tocar?

    1 Tocaram 0 Ainda não

    Grave um vídeo tocando Cereal Metal e nos envie!

    00:00 / 00:00
    Outros vídeos desta música
    Repetir Qualidade Automático
    Outros vídeos desta música
    00:00 / 00:00
    Automático

    Cifra Club Pro

    Aproveite o Cifra Club com benefícios exclusivos e sem anúncios
    Cifra Club Pro
    Aproveite o Cifra Club com benefícios exclusivos e sem anúncios
    OK