Cifra Club

Aprenda

Evil Papagali

Massacration

Cifra: Principal (violão e guitarra)
tom: E
Intro:

E|-----------------------------------|-----------------------------------|
B|-----------------------------------|-----------------------------------|
G|--9--------------------------------|--9--------------------------------|
D|--9--------------------------------|--9--------------------------------|
A|--7----7--9--10--9--7--5h-7p-5h-7--|--7----7--9--10--9--7--5h-7p-5h-7--|
E|-----------------------------------|-----------------------------------|
                                                               
E|-----------------------------------|-----------------------------------|
B|-----------------------------------|-----------------------------------|
G|--9--------------------------------|--9--------------------------------|
D|--9--------------------------------|--9--------------------------------|
A|--7----7--9--10--9--7--5h-7p-5h-7--|--7----7--9--10--9--7--5h-7p-5h-7--|
E|-----------------------------------|-----------------------------------|
                                                   
E|----------------------------------|----------------------------------|
B|----------------------------------|----------------------------------|
G|--5-------------------------------|--5-------------------------------|
D|--5-------------------------------|--5-------------------------------|
A|--3----3--4--6--8--6--4h-6p-4p-3--|--3----3--4--6--8--6--4h-6p-4p-3--|
E|----------------------------------|----------------------------------|
                                            
E|-----------------------------------|-----------------------------------|
B|-----------------------------------|-----------------------------------|
G|--7--------------------------------|--7--------------------------------|
D|--7--------------------------------|--7--------------------------------|
A|--5----5--6--8--10--8--6h-8p-6p-5--|--5----5--6--8--10--8--6h-8p-6p-5--|
E|-----------------------------------|-----------------------------------|

 2ª parte da intro é onde começa aquele ritmo mais marcado:
                                                            
E|------------------------------|------------------------------|
B|------------------------------|------------------------------|
G|------------------------------|------------------------------|
D|----------------9-------------|----------------9-------------|
A|--2----2--2--2--7----2--2--2--|--2----2--2--2--7----2--2--2--|
E|--0----0--0--0-------0--0--0--|--0----0--0--0-------0--0--0--|
                            
E|------------------------------|------------------------------|
B|------------------------------|------------------------------|
G|------------------------------|------------------------------|
D|----------------9-------------|----------------9-------------|
A|--2----2--2--2--7----2--2--2--|--2----2--2--2--7----2--2--2--|
E|--0----0--0--0-------0--0--0--|--0----0--0--0-------0--0--0--|
                           
E|------------------------------|------------------------------|
B|------------------------------|------------------------------|
G|--5---------------------------|--5---------------------------|
D|--5----9--9--9--9----5--5--5--|--5----9--9--9--9----5--5--5--|
A|--3----7--7--7--7----3--3--3--|--3----7--7--7--7----3--3--3--|
E|------------------------------|------------------------------|
                           
E|----------------------------------|----------------------------------|
B|----------------------------------|----------------------------------|
G|--7----------------------7--7--7--|--7----------------------7--7--7--|
D|--7----11--11--11--11----7--7--7--|--7----11--11--11--11----7--7--7--|
A|--5----9---9---9---9-----5--5--5--|--5----9---9---9---9-----5--5--5--|
E|----------------------------------|----------------------------------|

TRASH!!! ....                                                      
E|-------------------------------------|-------------------------------------|
B|-------------------------------------|-------------------------------------|
G|-------------------------------------|-------------------------------------|
D|--2----------------------------------|--2----------------------------------|
A|--2----------------------------------|--2----------------------------------|
E|--0----0-0-0--0--0-0-0--0--0-0-0--0--|--0----0-0-0--0--0-0-0--0--0-0-0--0--|
                             
E|-------------------------------------|-------------------------------------|
B|-------------------------------------|-------------------------------------|
G|-------------------------------------|-------------------------------------|
D|--2----------------------------------|--2----------------------------------|
A|--2----------------------------------|--2----------------------------------|
E|--0----0-0-0--0--0-0-0--0--0-0-0--0--|--0----0-0-0--0--0-0-0--0--0-0-0--0--|
                                
E|-------------------------------------|-------------------------------------|
B|-------------------------------------|-------------------------------------|
G|--5----------------------------------|--5----------------------------------|
D|--5----------------------------------|--5----------------------------------|
A|--3----3-3-3--3--3-3-3--3--3-3-3--3--|--3----3-3-3--3--3-3-3--3--3-3-3--3--|
E|-------------------------------------|-------------------------------------|
                          
E|-------------------------------------|-------------------------------|
B|-------------------------------------|-------------------------------|
G|--7----------------------------------|--7----------------------------|
D|--7----------------------------------|--7----------------------------|
A|--5----5-5-5--5--5-5-5--5--5-5-5--5--|--5----------3h-5p-2h-3p-2p-0--|
E|-------------------------------------|-------------------------------|

Aqui são os versos: I met a bird .....                                                                            
E|-------------------------------------|-------------------------------------|
B|-------------------------------------|-------------------------------------|
G|-------------------------------------|-------------------------------------|
D|--2----------------------------------|--2----------------------------------|
A|--2----------------------------------|--2----------------------------------|
E|--0----0-0-0--0--0-0-0--0--0-0-0--0--|--0----0-0-0--0--0-0-0--0--0-0-0--0--|
                                  
E|-------------------------------------|-------------------------------------|
B|-------------------------------------|-------------------------------------|
G|-------------------------------------|-------------------------------------|
D|--2----------------------------------|--2----------------------------------|
A|--2----------------------------------|--2----------------------------------|
E|--0----0-0-0--0--0-0-0--0--0-0-0--0--|--0----0-0-0--0--0-0-0--0--0-0-0--0--|
                                 
E|-------------------------------------|-------------------------------------|
B|-------------------------------------|-------------------------------------|
G|--5----------------------------------|--5----------------------------------|
D|--5----------------------------------|--5----------------------------------|
A|--3----3-3-3--3--3-3-3--3--3-3-3--3--|--3----3-3-3--3--3-3-3--3--3-3-3--3--|
E|-------------------------------------|-------------------------------------|
                          
E|-------------------------------------|-------------------------------|
B|-------------------------------------|-------------------------------|
G|--7----------------------------------|--7----------------------------|
D|--7----------------------------------|--7----------------------------|
A|--5----5-5-5--5--5-5-5--5--5-5-5--5--|--5----------3h-5p-2h-3p-2p-0--|
E|-------------------------------------|-------------------------------|
                                   
E|-------------------------------------|-------------------------------------|
B|-------------------------------------|-------------------------------------|
G|-------------------------------------|-------------------------------------|
D|--2----------------------------------|--2----------------------------------|
A|--2----------------------------------|--2----------------------------------|
E|--0----0-0-0--0--0-0-0--0--0-0-0--0--|--0----0-0-0--0--0-0-0--0--0-0-0--0--|
                                
E|-------------------------------------|-------------------------------------|
B|-------------------------------------|-------------------------------------|
G|-------------------------------------|-------------------------------------|
D|--2----------------------------------|--2----------------------------------|
A|--2----------------------------------|--2----------------------------------|
E|--0----0-0-0--0--0-0-0--0--0-0-0--0--|--0----0-0-0--0--0-0-0--0--0-0-0--0--|
                                     
E|-------------------------------------|-------------------------------------|
B|-------------------------------------|-------------------------------------|
G|--5----------------------------------|--5----------------------------------|
D|--5----------------------------------|--5----------------------------------|
A|--3----3-3-3--3--3-3-3--3--3-3-3--3--|--3----3-3-3--3--3-3-3--3--3-3-3--3--|
E|-------------------------------------|-------------------------------------|
                            
E|-------------------------------------|-------------------------------|
B|-------------------------------------|-------------------------------|
G|--7----------------------------------|--7----------------------------|
D|--7----------------------------------|--7----------------------------|
A|--5----5-5-5--5--5-5-5--5--5-5-5--5--|--5----------3h-5p-2h-3p-2p-0--|
E|-------------------------------------|-------------------------------|

 Refrão: Lorôoooooo lorô quer biscoito!                                                                     
E|----------------------------------|----------------------------------|
B|----------------------------------|----------------------------------|
G|----------------------------------|--5-------------------------------|
D|--2-------------------------------|--5-------------------------------|
A|--2-------------------------------|--3----3--3--3--3--3--3--3--3--3--|
E|--0----0--0--0--0--0--0--0--0--0--|----------------------------------|
                  
E|----------------------------------|------------------------------|
B|----------------------------------|------------------------------|
G|--7-------------------------------|--5-------------4-------------|
D|--7-------------------------------|--5-------------4-------------|
A|--5----5--5--5--5--5--5--5--5--5--|--3----3--3--3--2----2--2--2--|
E|----------------------------------|------------------------------|
                       
E|----------------------------------|----------------------------------|
B|----------------------------------|----------------------------------|
G|----------------------------------|--5-------------------------------|
D|--2-------------------------------|--5-------------------------------|
A|--2-------------------------------|--3----3--3--3--3--3--3--3--3--3--|
E|--0----0--0--0--0--0--0--0--0--0--|----------------------------------|
                                                                 
E|----------------------------------|------------------------------|
B|----------------------------------|------------------------------|
G|--7-------------------------------|--5-------------4-------------|
D|--7-------------------------------|--5-------------4-------------|
A|--5----5--5--5--5--5--5--5--5--5--|--3----3--3--3--2----2--2--2--|
E|----------------------------------|------------------------------|

Aqui volta como a segunda parte da intro
                                                              
E|------------------------------|------------------------------|
B|------------------------------|------------------------------|
G|------------------------------|------------------------------|
D|----------------9-------------|----------------9-------------|
A|--2----2--2--2--7----2--2--2--|--2----2--2--2--7----2--2--2--|
E|--0----0--0--0-------0--0--0--|--0----0--0--0-------0--0--0--|
                      
E|------------------------------|------------------------------|
B|------------------------------|------------------------------|
G|------------------------------|------------------------------|
D|----------------9-------------|----------------9-------------|
A|--2----2--2--2--7----2--2--2--|--2----2--2--2--7----2--2--2--|
E|--0----0--0--0-------0--0--0--|--0----0--0--0-------0--0--0--|
           
E|------------------------------|------------------------------|
B|------------------------------|------------------------------|
G|--5---------------------------|--5---------------------------|
D|--5----9--9--9--9----5--5--5--|--5----9--9--9--9----5--5--5--|
A|--3----7--7--7--7----3--3--3--|--3----7--7--7--7----3--3--3--|
E|------------------------------|------------------------------|
                        
E|----------------------------------|----------------------------------|
B|----------------------------------|----------------------------------|
G|--7----------------------7--7--7--|--7----------------------7--7--7--|
D|--7----11--11--11--11----7--7--7--|--7----11--11--11--11----7--7--7--|
A|--5----9---9---9---9-----5--5--5--|--5----9---9---9---9-----5--5--5--|
E|----------------------------------|----------------------------------|

Versos novamente:
                                                                            
E|-------------------------------------|-------------------------------------|
B|-------------------------------------|-------------------------------------|
G|-------------------------------------|-------------------------------------|
D|--2----------------------------------|--2----------------------------------|
A|--2----------------------------------|--2----------------------------------|
E|--0----0-0-0--0--0-0-0--0--0-0-0--0--|--0----0-0-0--0--0-0-0--0--0-0-0--0--|
                                                                            
E|-------------------------------------|-------------------------------------|
B|-------------------------------------|-------------------------------------|
G|-------------------------------------|-------------------------------------|
D|--2----------------------------------|--2----------------------------------|
A|--2----------------------------------|--2----------------------------------|
E|--0----0-0-0--0--0-0-0--0--0-0-0--0--|--0----0-0-0--0--0-0-0--0--0-0-0--0--|
                              
E|-------------------------------------|-------------------------------------|
B|-------------------------------------|-------------------------------------|
G|--5----------------------------------|--5----------------------------------|
D|--5----------------------------------|--5----------------------------------|
A|--3----3-3-3--3--3-3-3--3--3-3-3--3--|--3----3-3-3--3--3-3-3--3--3-3-3--3--|
E|-------------------------------------|-------------------------------------|
                         
E|-------------------------------------|-------------------------------|
B|-------------------------------------|-------------------------------|
G|--7----------------------------------|--7----------------------------|
D|--7----------------------------------|--7----------------------------|
A|--5----5-5-5--5--5-5-5--5--5-5-5--5--|--5----------3h-5p-2h-3p-2p-0--|
E|-------------------------------------|-------------------------------|
                                
E|-------------------------------------|-------------------------------------|
B|-------------------------------------|-------------------------------------|
G|-------------------------------------|-------------------------------------|
D|--2----------------------------------|--2----------------------------------|
A|--2----------------------------------|--2----------------------------------|
E|--0----0-0-0--0--0-0-0--0--0-0-0--0--|--0----0-0-0--0--0-0-0--0--0-0-0--0--|
                            
E|-------------------------------------|-------------------------------------|
B|-------------------------------------|-------------------------------------|
G|-------------------------------------|-------------------------------------|
D|--2----------------------------------|--2----------------------------------|
A|--2----------------------------------|--2----------------------------------|
E|--0----0-0-0--0--0-0-0--0--0-0-0--0--|--0----0-0-0--0--0-0-0--0--0-0-0--0--|
                             
E|-------------------------------------|-------------------------------------|
B|-------------------------------------|-------------------------------------|
G|--5----------------------------------|--5----------------------------------|
D|--5----------------------------------|--5----------------------------------|
A|--3----3-3-3--3--3-3-3--3--3-3-3--3--|--3----3-3-3--3--3-3-3--3--3-3-3--3--|
E|-------------------------------------|-------------------------------------|
                                   
E|-------------------------------------|-------------------------------|
B|-------------------------------------|-------------------------------|
G|--7----------------------------------|--7----------------------------|
D|--7----------------------------------|--7----------------------------|
A|--5----5-5-5--5--5-5-5--5--5-5-5--5--|--5----------3h-5p-2h-3p-2p-0--|
E|-------------------------------------|-------------------------------|
                         
E|----------------------------------|----------------------------------|
B|----------------------------------|----------------------------------|
G|----------------------------------|--5-------------------------------|
D|--2-------------------------------|--5-------------------------------|
A|--2-------------------------------|--3----3--3--3--3--3--3--3--3--3--|
E|--0----0--0--0--0--0--0--0--0--0--|----------------------------------|
                        
E|----------------------------------|------------------------------|
B|----------------------------------|------------------------------|
G|--7-------------------------------|--5-------------4-------------|
D|--7-------------------------------|--5-------------4-------------|
A|--5----5--5--5--5--5--5--5--5--5--|--3----3--3--3--2----2--2--2--|
E|----------------------------------|------------------------------|
                         
E|----------------------------------|----------------------------------|
B|----------------------------------|----------------------------------|
G|----------------------------------|--5-------------------------------|
D|--2-------------------------------|--5-------------------------------|
A|--2-------------------------------|--3----3--3--3--3--3--3--3--3--3--|
E|--0----0--0--0--0--0--0--0--0--0--|----------------------------------|
                        
E|----------------------------------|------------------------------|
B|----------------------------------|------------------------------|
G|--7-------------------------------|--5-------------4-------------|
D|--7-------------------------------|--5-------------4-------------|
A|--5----5--5--5--5--5--5--5--5--5--|--3----3--3--3--2----2--2--2--|
E|----------------------------------|------------------------------|
                           
E|----------------------------------|----------------------------------|
B|----------------------------------|----------------------------------|
G|----------------------------------|--5-------------------------------|
D|--2-------------------------------|--5-------------------------------|
A|--2-------------------------------|--3----3--3--3--3--3--3--3--3--3--|
E|--0----0--0--0--0--0--0--0--0--0--|----------------------------------|
                   
E|----------------------------------|------------------------------|
B|----------------------------------|------------------------------|
G|--7-------------------------------|--5-------------4-------------|
D|--7-------------------------------|--5-------------4-------------|
A|--5----5--5--5--5--5--5--5--5--5--|--3----3--3--3--2----2--2--2--|
E|----------------------------------|------------------------------|
                                   
E|----------------------------------|----------------------------------|
B|----------------------------------|----------------------------------|
G|----------------------------------|--5-------------------------------|
D|--2-------------------------------|--5-------------------------------|
A|--2-------------------------------|--3----3--3--3--3--3--3--3--3--3--|
E|--0----0--0--0--0--0--0--0--0--0--|----------------------------------|
                             
E|----------------------------------|------------------------------|
B|----------------------------------|------------------------------|
G|--7-------------------------------|--5-------------4-------------|
D|--7-------------------------------|--5-------------4-------------|
A|--5----5--5--5--5--5--5--5--5--5--|--3----3--3--3--2----2--2--2--|
E|----------------------------------|------------------------------|
                               
E|-------------------------------------|-------------------------------------|
B|-------------------------------------|-------------------------------------|
G|-------------------------------------|-------------------------------------|
D|--2-------------------------------7--|--2-------------------------------7--|
A|--2-------------------------------7--|--2-------------------------------7--|
E|--0----0-0-0--0--0-0-0--0--0-0-0--5--|--0----0-0-0--0--0-0-0--0--0-0-0--5--|
                                   
E|-------------------------------------|-------------------------------------|
B|-------------------------------------|-------------------------------------|
G|-------------------------------------|-------------------------------------|
D|--2-------------------------------7--|--2-------------------------------7--|
A|--2-------------------------------7--|--2-------------------------------7--|
E|--0----0-0-0--0--0-0-0--0--0-0-0--5--|--0----0-0-0--0--0-0-0--0--0-0-0--5--|
                                  
E|-------------------------------------|-------------------------------------|
B|-------------------------------------|-------------------------------------|
G|-------------------------------------|-------------------------------------|
D|--2-------------------------------7--|--2-------------------------------7--|
A|--2-------------------------------7--|--2-------------------------------7--|
E|--0----0-0-0--0--0-0-0--0--0-0-0--5--|--0----0-0-0--0--0-0-0--0--0-0-0--5--|
                                 
E|----------------------------------|--------------------------------------|
B|----------------------------------|--------------------------------------|
G|----------------------------------|--------------------------------------|
D|--2-------------------------------|--2--2--2--2--2--2--2--2--2--2--2--2--|
A|--2-------------------------------|--2--2--2--2--2--2--2--2--2--2--2--2--|
E|--0----0--0--0--0--0--0--0--0--0--|--0--0--0--0--0--0--0--0--0--0--0--0--|
                          
E|--------------------------------|--------------------------------|
B|--------------------------------|--------------------------------|
G|--4--------------5--------------|--7--------------5--------------|
D|--4--------------5--------------|--7--------------5--------------|
A|--2----2-2-2--2--3----3-3-3--3--|--5----5-5-5--5--3----3-3-3--3--|
E|--------------------------------|--------------------------------|
                           
E|--------------------------------|--------------------------------|
B|--------------------------------|--------------------------------|
G|--4--------------5--------------|--7--------------5--------------|
D|--4--------------5--------------|--7--------------5--------------|
A|--2----2-2-2--2--3----3-3-3--3--|--5----5-5-5--5--3----3-3-3--3--|
E|--------------------------------|--------------------------------|
                             
E|--------------------------------|--------------------------------|
B|--------------------------------|--------------------------------|
G|--4--------------5--------------|--7--------------5--------------|
D|--4--------------5--------------|--7--------------5--------------|
A|--2----2-2-2--2--3----3-3-3--3--|--5----5-5-5--5--3----3-3-3--3--|
E|--------------------------------|--------------------------------|
                           
E|--------------------------------|-------------------------------------|
B|--------------------------------|-------------------------------------|
G|--4--------------5--------------|--7----------------------------------|
D|--4--------------5--------------|--7----7-7-7--7--7-7-7--7--7-7-7--7--|
A|--2----2-2-2--2--3----3-3-3--3--|--5----5-5-5--5--5-5-5--5--5-5-5--5--|
E|--------------------------------|-------5-5-5--5--5-5-5--5--5-5-5--5--|
                         
E|----------------------------------|----------------------------------|
B|----------------------------------|----------------------------------|
G|----------------------------------|--5-------------------------------|
D|--2-------------------------------|--5-------------------------------|
A|--2-------------------------------|--3----3--3--3--3--3--3--3--3--3--|
E|--0----0--0--0--0--0--0--0--0--0--|----------------------------------|
                             
E|----------------------------------|------------------------------|
B|----------------------------------|------------------------------|
G|--7-------------------------------|--5-------------4-------------|
D|--7-------------------------------|--5-------------4-------------|
A|--5----5--5--5--5--5--5--5--5--5--|--3----3--3--3--2----2--2--2--|
E|----------------------------------|------------------------------|
                                 
E|----------------------------------|----------------------------------|
B|----------------------------------|----------------------------------|
G|----------------------------------|--5-------------------------------|
D|--2-------------------------------|--5-------------------------------|
A|--2-------------------------------|--3----3--3--3--3--3--3--3--3--3--|
E|--0----0--0--0--0--0--0--0--0--0--|----------------------------------|
                           
E|----------------------------------|------------------------------|
B|----------------------------------|------------------------------|
G|--7-------------------------------|--5-------------4-------------|
D|--7-------------------------------|--5-------------4-------------|
A|--5----5--5--5--5--5--5--5--5--5--|--3----3--3--3--2----2--2--2--|
E|----------------------------------|------------------------------|
                            
E|----------------------------------|----------------------------------|
B|----------------------------------|----------------------------------|
G|----------------------------------|--5-------------------------------|
D|--2-------------------------------|--5-------------------------------|
A|--2-------------------------------|--3----3--3--3--3--3--3--3--3--3--|
E|--0----0--0--0--0--0--0--0--0--0--|----------------------------------|
                           
E|----------------------------------|------------------------------|
B|----------------------------------|------------------------------|
G|--7-------------------------------|--5-------------4-------------|
D|--7-------------------------------|--5-------------4-------------|
A|--5----5--5--5--5--5--5--5--5--5--|--3----3--3--3--2----2--2--2--|
E|----------------------------------|------------------------------|
                     
E|-------------------|-------------------|-------------------|
B|-------------------|-------------------|-------------------|
G|-------------------|--5----------------|--7----------------|
D|--2----------------|--5----------------|--7----------------|
A|--2----------------|--3----------------|--5----------------|
E|--0----------------|-------------------|-------------------|
                     
E|--------------------|-------------------|-------------------|
B|--------------------|-------------------|-------------------|
G|--5--------4--------|-------------------|--5----------------|
D|--5--------4--------|--2----------------|--5----------------|
A|--3--------2--------|--2----------------|--3----------------|
E|--------------------|--0----------------|-------------------|
                                        
E|-------------------|--------------------|----------------------------------|
B|-------------------|--------------------|----------------------------------|
G|--7----------------|--5--------4--------|----------------------------------|
D|--7----------------|--5--------4--------|--2-------------------------------|
A|--5----------------|--3--------2--------|--2-------------------------------|
E|-------------------|--------------------|--0----0--0--0--0--0--0--0--0--0--|
                             
E|----------------------------------|----------------------------------|
B|----------------------------------|----------------------------------|
G|--5-------------------------------|--7-------------------------------|
D|--5-------------------------------|--7-------------------------------|
A|--3----3--3--3--3--3--3--3--3--3--|--5----5--5--5--5--5--5--5--5--5--|
E|----------------------------------|----------------------------------|
                             
E|------------------------------|----------------------------------|
B|------------------------------|----------------------------------|
G|--5-------------4-------------|----------------------------------|
D|--5-------------4-------------|--2-------------------------------|
A|--3----3--3--3--2----2--2--2--|--2-------------------------------|
E|------------------------------|--0----0--0--0--0--0--0--0--0--0--|
                             
E|----------------------------------|----------------------------------|
B|----------------------------------|----------------------------------|
G|--5-------------------------------|--7-------------------------------|
D|--5-------------------------------|--7-------------------------------|
A|--3----3--3--3--3--3--3--3--3--3--|--5----5--5--5--5--5--5--5--5--5--|
E|----------------------------------|----------------------------------|
           
E|------------------------------|-----------------------------------|
B|------------------------------|-----------------------------------|
G|--5-------------4-------------|--9--------------------------------|
D|--5-------------4-------------|--9--------------------------------|
A|--3----3--3--3--2----2--2--2--|--7----7--9--10--9--7--5h-7p-5h-7--|
E|------------------------------|-----------------------------------|
                
E|-----------------------------------|-----------------------------------|
B|-----------------------------------|-----------------------------------|
G|--9--------------------------------|--9--------------------------------|
D|--9--------------------------------|--9--------------------------------|
A|--7----7--9--10--9--7--5h-7p-5h-7--|--7----7--9--10--9--7--5h-7p-5h-7--|
E|-----------------------------------|-----------------------------------|
               
E|-----------------------------------|----------------------------------|
B|-----------------------------------|----------------------------------|
G|--9--------------------------------|--5-------------------------------|
D|--9--------------------------------|--5-------------------------------|
A|--7----7--9--10--9--7--5h-7p-5h-7--|--3----3--4--6--8--6--4h-6p-4p-3--|
E|-----------------------------------|----------------------------------|
                  
E|----------------------------------|-----------------------------------|
B|----------------------------------|-----------------------------------|
G|--5-------------------------------|--7--------------------------------|
D|--5-------------------------------|--7--------------------------------|
A|--3----3--4--6--8--6--4h-6p-4p-3--|--5----5--6--8--10--8--6h-8p-6p-5--|
E|----------------------------------|-----------------------------------|
                                   
E|-----------------------------------|-----------------------------------|
B|-----------------------------------|-----------------------------------|
G|--7--------------------------------|--9--------------------------------|
D|--7--------------------------------|--9--------------------------------|
A|--5----5--6--8--10--8--6h-8p-6p-5--|--7----7--9--10--9--7--5h-7p-5h-7--|
E|-----------------------------------|-----------------------------------|
                
E|-----------------------------------|-----------------------------------|
B|-----------------------------------|-----------------------------------|
G|--9--------------------------------|--9--------------------------------|
D|--9--------------------------------|--9--------------------------------|
A|--7----7--9--10--9--7--5h-7p-5h-7--|--7----7--9--10--9--7--5h-7p-5h-7--|
E|-----------------------------------|-----------------------------------|
                    
E|-----------------------------------|----------------------------------|
B|-----------------------------------|----------------------------------|
G|--9--------------------------------|--5-------------------------------|
D|--9--------------------------------|--5-------------------------------|
A|--7----7--9--10--9--7--5h-7p-5h-7--|--3----3--4--6--8--6--4h-6p-4p-3--|
E|-----------------------------------|----------------------------------|
               
E|----------------------------------|-----------------------------------|
B|----------------------------------|-----------------------------------|
G|--5-------------------------------|--7--------------------------------|
D|--5-------------------------------|--7--------------------------------|
A|--3----3--4--6--8--6--4h-6p-4p-3--|--5----5--6--8--10--8--6h-8p-6p-5--|
E|----------------------------------|-----------------------------------|
                 
E|-----------------------------------|-------------------------------------|
B|-----------------------------------|-------------------------------------|
G|--7--------------------------------|-------------------------------------|
D|--7--------------------------------|--2-------------------------------2--|
A|--5----5--6--8--10--8--6h-8p-6p-5--|--2-------------------------------2--|
E|-----------------------------------|--0----0-0-0--0--0-0-0--0--0-0-0--0--|
                         
E|-------------------------------------|-------------------------------------|
B|-------------------------------------|-------------------------------------|
G|-------------------------------------|-------------------------------------|
D|--2-------------------------------2--|--2-------------------------------2--|
A|--2-------------------------------2--|--2-------------------------------2--|
E|--0----0-0-0--0--0-0-0--0--0-0-0--0--|--0----0-0-0--0--0-0-0--0--0-0-0--0--|
                           
E|-------------------------------------|-------------------------------------|
B|-------------------------------------|-------------------------------------|
G|-------------------------------------|-------------------------------------|
D|--2-------------------------------2--|--2-------------------------------2--|
A|--2-------------------------------2--|--2-------------------------------2--|
E|--0----0-0-0--0--0-0-0--0--0-0-0--0--|--0----0-0-0--0--0-0-0--0--0-0-0--0--|
                                 
E|-------------------------------------|---------------------------------------|
B|-------------------------------------|---------------------------------------|
G|-------------------------------------|---------------------------------------|
D|--2-------------------------------2--|--2------------------------------------|
A|--2-------------------------------2--|--2------------------------------------|
E|--0----0-0-0--0--0-0-0--0--0-0-0--0--|--0------0-0-0--0--0-0-0--0--0-0-0--0--|
          
E|------------------------------------------|-------------------|
B|------------------------------------------|-------------------|
G|------------------------------------------|-------------------|
D|------------------------------------------|--2----------------|
A|------------------------------------------|--2----------------|
E|--0-0-0--0--0-0-0--0--0-0-0--0--0-0-0--0--|--0----------------|
Composição de Blondrie Hammett / Detonator / Head Master / Jimmy "The Hammer" / Metal Avenger
Colaboração e revisão:
  • Jose_Geraldo
  • Diego Barroso
153.477 exibições
    • ½ Tom
    • A
    • Bb
    • B
    • C
    • Db
    • D
    • Eb
    • E
    • F
    • F#
    • G
    • Ab
  • Adicionar à lista

    0 comentários

    Ver todos os comentários

    Conseguiu tocar?

    28 Tocaram 0 Ainda não

    Grave um vídeo tocando Evil Papagali e nos envie!

    00:00 / 00:00
    Outros vídeos desta música
    Repetir Qualidade Automático
    Outros vídeos desta música
    00:00 / 00:00
    Automático

    Cifra Club Pro

    Aproveite o Cifra Club com benefícios exclusivos e sem anúncios
    Cifra Club Pro
    Aproveite o Cifra Club com benefícios exclusivos e sem anúncios
    OK