Cifra Club

Aprenda

Feel The Fire From Barbecue

Massacration

Cifra: Principal (violão e guitarra)
tom: E
e|-----------------------------------------|-------------------------------|
b|-----------------------------------------|-------------------------------|
g|---12-11-9-----------------------9-------|---99-99-99-99-99--77777-9-----|
d|-----------12-10-9---------------9-------|---99-99-99-99-99--77777-9-----|
a|-------------------12-10-9----9--7-------|---77-77-77-77-77--55555-7-----|
e|---------------------------12------------|-------------------------------|

                  (intro)                           (riff 1)
e|-----------------------------------|------------------------------------|
b|-----------------------------------|------------------------------------|
g|--99-99-99-99-99--777-10-9---------|------------------------5555-9------|
d|--99-99-99-99-99--777-10-9---------|--8-7-5---8-7-5---8-7-5-5555-9------|
a|--77-77-77-77-77--555-8--7---------|--------7-------7-------3333-7------|
e|-----------------------------------|------------------------------------|

            (riff 2)                             (riff 3)
e|-----------------------------------|--------------------------------------|
b|-----------------------------------|--------------------------------------|
g|-4---5---9-999---------------------|-----------55-5-----------------------|
d|-4---5---9-999---------------------|-22-2-55-5-55-5-77-7------------------|
a|-2---3---7-777---------------------|-22-2-55-5-33-3-77-7------------------|
e|-----------------------------------|-00-0-33-3------55-5------------------|
                                        p.m  p.m  p.m  p.m
          (riff 4)                            riff 5

E|-------------------------------------| escute a msk pra saber direito o numero de vezes que cad
B|-------------------------------------| riff e tocado e o numero d vezes que cada acorde é tocado
g|-------------------------------------|
d|--2222222222-0222222222-02-----------|
a|--2222222222-0222222222-02-----------|
e|--0000000000-0000000000-00-----------|
     |---p.m---|  |--p.m-|
       fim

(intro)
riff1
riff2
riff1
riff2
riff3
riff1
riff2
riff1
riff2
riff3
riff1
riff2
riff1
riff2
riff3
riff4
riff1
riff3
riff4
riff5
riff3
riff4
(fim)
Compositor não encontrado.
Colaboração e revisão:
  • French 1052
  • Andre Miedzinski
10.270 exibições
    • ½ Tom
    • A
    • Bb
    • B
    • C
    • Db
    • D
    • Eb
    • E
    • F
    • F#
    • G
    • Ab
  • Adicionar à lista

    0 comentários

    Ver todos os comentários

    Conseguiu tocar?

    0 Tocaram 1 Ainda não

    Grave um vídeo tocando Feel The Fire From Barbecue e nos envie!

    00:00 / 00:00
    Outros vídeos desta música
    Repetir Qualidade Automático
    Outros vídeos desta música
    00:00 / 00:00
    Automático

    Cifra Club Pro

    Aproveite o Cifra Club com benefícios exclusivos e sem anúncios
    Cifra Club Pro
    Aproveite o Cifra Club com benefícios exclusivos e sem anúncios
    OK