Cifra Club

Aprenda

Jesus Negão

Massacration

Tab de baixo: Principal
G|------------
D|------------
A|------------
E|-000-3-00---

G|------------
D|------------
A|------------
E|-000-3-00---

G|------------
D|------------
A|------------
E|-000-3-00---

G|------------
D|------------
A|------------
E|-000-3-00---

G|------------
D|------------
A|------------
E|-000-3-00---

G|------------
D|------------
A|--------22--
E|-00-0-3-----

G|------------
D|------------
A|------------
E|-000-3-00---

G|------------
D|------------
A|--------22--
E|-00-0-3-----

G|------------
D|------------
A|------------
E|-000-3-00---

G|------------
D|------------
A|--------22--
E|-00-0-3-----

G|------------
D|------------
A|------------
E|-000-3-00---

G|------------
D|------------
A|--------22--
E|-00-0-3-----
Compositor não encontrado.
Colaboração e revisão:
  • Reginaldo Costa
10.655 exibições

0 comentários

Ver todos os comentários

Conseguiu tocar?

1 Tocaram 1 Ainda não

Grave um vídeo tocando Jesus Negão e nos envie!

00:00 / 00:00
Outros vídeos desta música
Repetir Qualidade Automático
Outros vídeos desta música
00:00 / 00:00
Automático

Cifra Club Pro

Aproveite o Cifra Club com benefícios exclusivos e sem anúncios
Cifra Club Pro
Aproveite o Cifra Club com benefícios exclusivos e sem anúncios
OK