Lets Ride To Metal Land

Massacration

tom: E
   Riff 1 (intro baixo)
|-----------------------------|
|-----------------------------|
|-----------------------------| 
|-----------------------------|
|------2-2-2-2-2-2-2-2-2-2----|
|--0-3------------------------|

Riff 2 (intro Guitarra)
|---------------------------------|
|---------------------------------|
|---------4---6--7-------4---2----| 
|--2--5---4---6--7---5---4---2----|
|--2--5---2---4--5---5---2---0----|
|--0--3--------------3------------|

Riff 3 (essa parte eh repedida varias vezes)
|-----------------------------------|
|-----------------------------------|
|--4-4-4-4-4-------------4-4-4-4----|
|--4-4-4-4-4------2--4---4-4-4-4----|
|--2-2-2-2-2....--2--4---2-2-2-2....|
|-----------------0--2--------------|

Riff 4 (2 vezes)
|-----------------------------------------------|
|-----------------------------------------------|
|-----4-------------2--4------7---9---11---4---| 
|-----4-----4---2---2--4------7---9---11---4---|
|-----2...--4---2---0--2...---5---7---9----2---|
|-----------2---0-------------------------------|

Repete os riffs
Riff 3
Riff 4 

Riff 5 (refrão)
|----------------------------------|
|----------------------------------|
|-4---6-7-------4--2-----------4---| 
|-4---6-7--5----4--2-----2--4--4---|
|-2...4-5--5----2--0....-2--4--2---|
|----------3...----------0--2------|


obs: aonde estiver "..." eh para ficar repitindo 
o acorde.

Letra:

There's a land so far away
Where the heavy metal plays
People uses always black
There's no place to any gay

Trees alto-falantes
Volume is aways ten
Pets are elephants
And the drink is leberé

To this land there is no plane
To this land there's only one bus
Get a taxi there's no way
Headbangers come with us

Right time and right place
Take care don't be late
Or they'll fechate the gate
To the promissed land

Chorus:
Get the bus to the land of the metal(4x)
A passagem é 1 real

Hey, motorista
Para aí que eu quero entrar
Eu também quero ir
Lá pra terra do metal

Hey, motorista
Se essa porra não virar
Eu também vou chegar
Lá na terra do metal
Página 1 / 1

Letras e título
Acordes e artista

resetar configurações
OK