Cifra Club

Lets Ride To Metal Land

Massacration

Tab de baixo: Principal
Intro » Soh o Baixo e batera (depois da virada)
4x
|-------------------------------------------------------------
|-------------------------------------------------------------
|---------22222222222222222222222222222-----------------------
|---0--3------------------------------------------------------

Escuta bem! para pegar o tempo!
2x
|-------------------------------------------------------------
|-------------------------------------------------------------
|--------2--------4---5------------------2-----0--------------
|---0-3-------------------------3-----------------------------

|-------------------------------------------------------------
|-------------------------------------------------------------
|--------2----------------------------2-----------------------
|---0--3-------------------------0--3-------------------------

7x
|-------------------------------------------------------------
|-------------------------------------------------------------
|---------22222222222222222222222222222-----------------------
|---0--3------------------------------------------------------

|-------------------------------------------------------------
|-------------------------------------------------------------
|--2222222222222222--------0--222222222222222--0--2--4--------
|--------------------2--0-------------------------------------

|-------------------------------------------------------------
|-------------------------------------------------------------
|--2222222222222222--------0--222222222222222--0--2--4--22222-
|--------------------2--0-------------------------------------

6x
|-------------------------------------------------------------
|-------------------------------------------------------------
|---------22222222222222222222222222222-----------------------
|---0--3------------------------------------------------------

|-------------------------------------------------------------
|-------------------------------------------------------------
|--2222222222222222--------0--222222222222222--0--2--4--------
|--------------------2--0-------------------------------------

|-------------------------------------------------------------
|-------------------------------------------------------------
|--2222222222222222--------0--222222222222222--0--2--4--22222-
|--------------------2--0-------------------------------------

Refrão
|-------------------------------------------------------------
|-------------------------------------------------------------
|--22222222-4-555555555-5-----------2-00000000000-------------
|-------------------------333333333---------------------------

3x
|-------------------------------------------------------------
|-------------------------------------------------------------
|------22222222-4-555555555-5-4-----------2-00000000000-------
|--0-3--------------------------333333333---------------------

2x
|-------------------------------------------------------------
|-------------------------------------------------------------
|---------22222222222222222222222222222-----------------------
|---0--3------------------------------------------------------

Solo
|-------------------------------------------------------------
|-------------------------------------------------------------
|------22222222-4-555555555-5-4-----------2-00000000000-------
|--0-3--------------------------333333333---------------------

|-------------------------------------------------------------
|-------------------------------------------------------------
|---------------00000000000--------222222222222222222222222---
|--33333333333---------------0--3-----------------------------

4x
|-------------------------------------------------------------
|-------------------------------------------------------------
|------22222222-4-555555555-5-4-----------2-00000000000-------
|--0-3--------------------------333333333---------------------

4x
|-------------------------------------------------------------
|-------------------------------------------------------------
|---------22222222222222222222222222222-----------------------
|---0--3------------------------------------------------------

Refrão
"N" vezes
|-------------------------------------------------------------
|-------------------------------------------------------------
|------22222222-4-555555555-5-4-----------2-00000000000-------
|--0-3--------------------------333333333---------------------

|-------------------------------------------------------------
|-------------------------------------------------------------
|--------2~~~~~~~~~~------------------------------------------
|--0--3-------------------------------------------------------
Compositor não encontrado.
Colaboração e revisão:
  • Bruno Balberith
5.806 exibições

0 comentários

Ver todos os comentários

Conseguiu tocar?

2 Tocaram 0 Ainda não

Grave um vídeo tocando Lets Ride To Metal Land e nos envie!

00:00 / 00:00
Outros vídeos desta música
Repetir Qualidade Automático
Outros vídeos desta música
00:00 / 00:00
Automático

Cifra Club Pro

Aproveite o Cifra Club com benefícios exclusivos e sem anúncios
Cifra Club Pro
Aproveite o Cifra Club com benefícios exclusivos e sem anúncios
OK