Cifra Club

Aprenda

Metal Bucetation

Massacration

Cifra: Principal (violão e guitarra)
tom: E
### Afinação da Guitarra : Eb  [Eb,Ab,Db,Gb,Bb,Eb] ###

     Intro
e|--------------------|---------------------------------------
B|--------------------|---------------------------------------
G|---------9--------9-|--------9--------9--------9------------
D|-----5---9--------9-|--------9--------9--------9------------
A|--5------7--7--7--7-|--7--7--7--7--7--7--7--7--7------------
E|--------------------|---------------------------------------

e|--------------------|---------------------------------------
B|--------------------|---------------------------------------
G|---------9--------9-|--------9--------9--------9------------
D|-----5---9--------9-|--------9--------9--------9------------
A|2h3------7--7--7--7-|--7--7--7--7--7--7--7--7--7------------
E|--------------------|---------------------------------------
              
e|--------------------|-------------------------------------------
B|--------------------|-------------------------------------------
G|--9---9--9--9--7--5-|-5--5--5--5--------------------------------
D|--9---9--9--9--7--5-|-5--5--5--5-----------9--9---7--7--------2-
A|--7---7--7--7--5--3-|-3--3--3--3-2-2-2-2-2-9--9---7--7--------2-
E|--------------------|----------------------7--7---5--5-5-2h3--0-

e|--------------------|-------------------------------------------
B|--------------------|-------------------------------------------
G|--9---9--9--9--7--5-|-5--5--5--5--------------------------------
D|--9---9--9--9--7--5-|-5--5--5--5-----------9--9---7--7--------2-
A|--7---7--7--7--5--3-|-3--3--3--3-2-2-2-2-2-9--9---7--7--------2-
E|--------------------|----------------------7--7---5--5-5-2h3--0-

       Main Riff (Tocado durante os versos, refrão e solo)
e|-------------------|----------------------------------------
B|-------------------|----------------------------------------
G|--9--7/9-9-7/9--9--|-9--7--5-----5-----5-------5-----5------
D|--9--7/9-9-7/9--9--|-9--7--5-----5-----5-------5-----5------
A|--7--5/7-7-5/7--7--|-7--5--3-3-3-3-3-3-3-3-3-3-3-3-3-3-2-2-2
E|0--0----0-0----0-0-|---0------------------------------------

e|------------------------|-----------------------------------
B|------------------------|-----------------------------------
G|------------------------|-----------------------------------
D|--9-----9-----9-7-----7-|------2-----2-----2-----2-----2----
A|--9-----9-----9-7-----7-|------2-----2-----2-----2-----2----
E|--7-7-7-7-7-7-7-5-5-5-5-|-2h3--0-0-0-0-0-0-0-0-0-0-0-0-0----

   Interludio (depois do solo)
e|---------------------------------|-----------------------------------
B|---------------------------------|-----------------------------------
G|--7/9-9-9-9-9-11-11-11-11-11-11--|-12-12-12-12-12--14--12--11--7-----
D|--7/9-9-9-9-9-11-11-11-11-11-11--|-12-12-12-12-12--14--12--11--7-----
A|--5/7-7-7-7-7--9--9--9--9--9--9--|-10-10-10-10-10--12--10---9--5-----
E|---------------------------------|-----------------------------------

e|---------------------------------|-----------------------------------
B|---------------------------------|-----------------------------------
G|--7/9-9-9-9-9-11-11-11-11-11-11--|-12-12-12-12-12--14--12--11--9-----
D|--7/9-9-9-9-9-11-11-11-11-11-11--|-12-12-12-12-12--14--12--11--9-----
A|--5/7-7-7-7-7--9--9--9--9--9--9--|-10-10-10-10-10--12--10---9--7-----
E|---------------------------------|-----------------------------------

e|------------------------|-----------------------------------
B|------------------------|-----------------------------------
G|------------------------|-----------------------------------
D|--9-----9-----9-7-----7-|------2-----2-----2-----2-----2----
A|--9-----9-----9-7-----7-|------2-----2-----2-----2-----2----
E|--7-7-7-7-7-7-7-5-5-5-5-|-2h3--0-0-0-0-0-0-0-0-0-0-0-0-0----


Letra da Musica (10% correta, porque é dificil entender)

Metal Bucetation (Detonator, Blonde Hammet, Jimmy Hammer, Metal Avenger, Headmaster)

(nas palminhas)
E5
Hey, hey, hey(AAAAA-AW)
Hey, hey, hey(AAAAA-AW)
Hey, hey, hey(AAAAAAAAAAAAAAAAAAHHHHHHHH AAAAH AW)
E5     D5     C5    B5              B5    A5  E5
Oooooh oooooh oooh (hey! hey! hey!) oooh--ohh AAAAAAAAAAAAAAAAAAHHHH-AW !!!!!!
E5              D5
All the Nation
C5
Stop the Punhetation
B5    A5    E5
Decretado eu sou
E5              D5
All the Nation
C5
Fuck  Bucetation
B5    A5  E5
Angel say yaaaaaah yaaaaaaaah
E5     D5     C5                   B5           A5        E5
Oooooh oooooh oooh (hey! hey! hey!)     ooooohh oOoOHHHH !!!!!! 
Oooooh oooooh oooh (hey! hey! hey!)     oooh--ohh OOOOOOOOOH !!!!!! AAAAAAAAAAAAAW!!!BLONDE HAMMET!!

(SOLO - BLONDE HAMMET)(intirável é rápido demais, o cara deve ter feito qualquer coisa na hora)
D5 / E5
Hold the pirocation
F#5
Hold the impositation
G5     A5
I dont take it! 
D5 / E5
Hold the pirocation
F#5
Hold the bucetation
G5         A5
Unipotation
D5 / E5
Hold the gozation
F#5
Aaaaaah Ispertation
D5 / E5   F#5   G5     A5
(VARIOS GRITOS AGUDOS SEGUINDO O RITMO DAS FRASES ACIMA)
(VARIOS GRITOS AGUDOS SEGUINDO O RITMO DAS FRASES ACIMA)
D5 / E5   F#5   G5     A5
[Mais gritos agudos seguindo o ritmo das frases acima]
[Mais gritos agudos seguindo o ritmo das frases acima]
[Termina com "Saaah ah Saaah ahhh haaaaaw"]
E5     D5     C5     B5    A5  E5
Oooooh oooooh oooh   oooh--ohh OOOOOOOOOHHHH !!!!!!
Oooooh oooooh oooh   oooh--ohh OOOOOOOOOHHHH !!!!!!

Os acordes na letra são soh para ajudar, veja a tab
Composição de Blonde Hammet / Detonator / Headmaster / Jimmy Hammer / Metal Avenger
Colaboração e revisão:
  • Vitor Finato
214.841 exibições
    • ½ Tom
    • A
    • Bb
    • B
    • C
    • Db
    • D
    • Eb
    • E
    • F
    • F#
    • G
    • Ab
  • Adicionar à lista

    0 comentários

    Ver todos os comentários

    Conseguiu tocar?

    15 Tocaram 0 Ainda não

    Grave um vídeo tocando Metal Bucetation e nos envie!

    00:00 / 00:00
    Outros vídeos desta música
    Repetir Qualidade Automático
    Outros vídeos desta música
    00:00 / 00:00
    Automático

    Cifra Club Pro

    Aproveite o Cifra Club com benefícios exclusivos e sem anúncios
    Cifra Club Pro
    Aproveite o Cifra Club com benefícios exclusivos e sem anúncios
    OK