Cifra Club

Aprenda

Metal Glu-Glu

Massacration

Cifra: Principal (violão e guitarra)
tom: C
Intro:
E|---------------------------------------|
B|---------------------------------------|
G|---------------------------------------|
D|-/9------9------9------9--------10-7-9-|
A|-/7-xxxx-7-xxxx-7-xxxx-7-xxxxxx-8--5-7-|
E|---------------------------------------|

E|-------------------------------------------|
B|-------------------------------------------|
G|-------------------------------------------|
D|-/9------9------9------9------9----9--7--9-|
A|-/7-xxxx-7-xxxx-7-xxxx-7-xxxx-7-xx-7--5--7-|
E|-------------------------------------------|

Riff 1:
E|--------------------------------------|
B|--------------------------------------|
G|--------------------------------------|
D|-9------9------9------9--------10-7-9-|
A|-7------7------7------7--------8--5-7-|
E|---0000---0000---0000---000000--------|

E|-------------------------------------------|
B|-------------------------------------------|
G|-------------------------------------------|
D|-/9------9------9------9------9----9--7--9-|
A|-/7-xxxx-7-xxxx-7-xxxx-7-xxxx-7-xx-7--5--7-|
E|-------------------------------------------|

Riff 2:
E|------------------------------------------------------------|
B|------------------------------------------------------------|
G|------------------------------------------------------------|
D|-4------4------5------5------4------------------------------|
A|-2-2222-2-2222-3-3333-3-3333-2-222-----2------2------2------|
E|-----------------------------------3-2-0-0000-0-0000-0-0000-|

 |---xxxx---xxxx---xxxx---xxxx---xxx-------xxxx---xxxx---xxxx-|   
                        palm mute

(riff1)
With foot ability
Glu-Glu on the hands
Mallandro is master
Mallandro is king
The fuckest master
Want a revenge
To honor Mallandro
We gonna sing

(riff2) (1x)

(riff1)
Stallando cobra
Super Mallandro
And Mallandrovsky
The fire of metal Is still burning
Take care of your ring
With foot ability
Glu-Glu on the hands
Mallandro is master
Mallandro is king
The fuckest master
Want a revenge
To honor Mallandro
We gonna sing

(riff2)
Happy birthday to you
This is the metal glu-glu
Happy birthday to you
This is the metal glu-glu
Happy birthday to you
This is the metal glu-glu
Happy birthday to you
This is the metal glu-glu

Come on my love
Come on my chuchu
Come little near
I do glu-glu

Glu-glu for me
Glu-glu for you
Come on my love
I love you

Yeah yeah
Yeah yeah
Yeah yeah
Yeah yeah

I want to love
I want to squeeze
I want to kiss
I want to put you
In my heart
Little cat, little emotion
Let's go!

Happy birthday to you
This is the metal glu-glu
Happy birthday to you
This is the metal glu-glu

Happy birthday to you
This is the metal glu-glu
Happy birthday to you
This is the metal glu-glu

Tá bom, Serginho

Yeah yeah
Glu-glu Piu-piu, rá!
Massacration
Metal do Glu-glu
Piu-piu Ié-ié, rá!
Yeah yeah, Oh yeah
Yeah-yeah, rá!

Esse é o metal do Mallandro
É assim que o Serginho Mallandro gosta
Rá!
Metal Glu-glu, Massacration!
Rá!
Yeah-yeah, Oh yeah
Composição de Massacration e Sérgio Malandro
Colaboração e revisão:
  • Felix Washington
  • David Silva
17.586 exibições
    • ½ Tom
    • A
    • Bb
    • B
    • C
    • Db
    • D
    • Eb
    • E
    • F
    • F#
    • G
    • Ab
  • Adicionar à lista

    0 comentários

    Ver todos os comentários

    Conseguiu tocar?

    0 Tocaram 0 Ainda não

    Grave um vídeo tocando Metal Glu-Glu e nos envie!

    00:00 / 00:00
    Outros vídeos desta música
    Repetir Qualidade Automático
    Outros vídeos desta música
    00:00 / 00:00
    Automático

    Cifra Club Pro

    Aproveite o Cifra Club com benefícios exclusivos e sem anúncios
    Cifra Club Pro
    Aproveite o Cifra Club com benefícios exclusivos e sem anúncios
    OK