Cifra Club

Metal Is The Law

Massacration

Cifra: Principal
exibições 124.699
Tom: A
Introdução: E5

     P.M. . . . . . . . .
E|------------------------------------------|
B|------------------------------------------|
G|-9----------------------------------------|
D|-9----------------------------------------|
A|-7--0-0-0-0-0-0-0-0-0-0-------------------|
E|------------------------------------------|

           P.M. . . . . . . . . . . . .
E|------------------------------------------|
B|------------------------------------------|
G|-9--9--9----------------------------------|
D|-9--9--9----------------------------------|
A|-7--7--7--0-0-0-0-0-0-0-0-0-0-0-0-0-0-----|
E|------------------------------------------|

E|------------------------------------------|
B|------------------------------------------|
G|-9--9--9--9--9-9-9-7-9-7-9-7-9-7----------|
D|-9--9--9--9--9-9-9-7-9-7-9-7-9-7----------|
A|-7--7--7--7--7-7-7-5-7-5-7-5-7-5----------|
E|------------------------------------------|

(Riff 1)

Ai
Ai ai ai
Ai ai ai ai ai ai ai
Em cima, embaixo, puxa e vai

Ai ai ai
Ai ai ai ai ai ai ai
Em cima, embaixo, puxa e vai

Riff 2: E5  A5

      P.M. . . . .     . . . . . .
E|------------------------------------------|
B|------------------------------------------|
G|------------------------------------------|
D|------------------------------------------|
A|------------------------------------------|
E|-3p0-0-0-0-0-0-0-3p0-0-0-0-0-0-0----------|

      P.M. . . . .     . . . . . .
E|------------------------------------------|
B|------------------------------------------|
G|------------------------------------------|
D|------------------------------------------|
A|------------------------------------------|
E|-3p0-0-0-0-0-0-0-3p0-0-0-0-0-0-0----------|

      P.M. . . . .     . . . . . .
E|------------------------------------------|
B|------------------------------------------|
G|------------------------------------------|
D|------------------------------------------|
A|------------------------------------------|
E|-3p0-0-0-0-0-0-0-3p0-0-0-0-0-0-0----------|

      P.M. . . . .    . .    . .
E|------------------------------------------|
B|------------------------------------------|
G|------------------------------------------|
D|-5/7-------------7------7-----------------|
A|-5/7-------------7------7-----------------|
E|-3/5-5-5-5-5-5-5-5--5-5-5--5-5------------|


(Riff 1)


Primeira Parte:

E5
If you want to be metal
                     A5
There laws you got obey
     E5
The laws of gods of metal
                      A5
And that's what I'll say

(Riff 3)

        P.M. . .
E|------------------------------------------|
B|------------------------------------------|
G|-5--4----------5--4--5--7-----------------|   (3x)
D|-5--4----------5--4--5--7-----------------|
A|-3--2--2-2-2-2-3--2--3--5-----------------|
E|------------------------------------------|

        P.M. . .    . .    . .
E|------------------------------------------|
B|------------------------------------------|
G|-5--2----------2------2-------------------|
D|-5--2----------2------2-------------------|
A|-3--0--0-0-0-0-0--0-0-0--0-0--------------|
E|------------------------------------------|

E5
If you want to be metal
          A5
No avacalhation
E5
Use black forever
                         A5
Go to the show of Massacration

(Riff 3)

No boiolation
Frescuration
Viadation

Die reggae idiota
Mambo escroto
Forró babaca


Primeiro Refrão:

E5  C5   D5      E5
   Metal is the law
     C5      D5   E5
The law is the metal
   C5      D5  E5
Metal the law  is
 C5 ( B )
Me___tal


(Riff 2)


Segunda Parte:

 E5
Now that you are metal
          A5
Metal you are
 E5
Never, never, never, never, never
          A5
Use bermuda

(Riff 3)

No boiolation
Frescuration
Viadation

Die
Música eletrônica de bicha
Pop de viados
Dance, no!


Segundo Refrão:

E5  C5   D5      E5
   Metal is the law
     C5      D5   E5
The law is the metal
   C5      D5  E5
Metal the law  is
 C5  D5  E5
Me__tal

C5  D5  E5

C5  ( B )


Interlúdio:

(Riff 1)

Ai
Ai ai ai
Ai ai ai ai ai ai ai
Em cima, embaixo, puxa e vai

Ai ai ai
Ai ai ai ai ai ai ai
Em cima, embaixo, puxa e vai


Final:

(Riff 2)

Ai
Ai ai ai
Ai ai ai ai ai ai ai

Ai
Ai ai ai
Ai ai ai ai ai ai ai

 D5  E5
Me__tal!
Acordes para:
    Colaboração e revisão:

    0 comentários

      mostrar mais comentários

      Conseguiu tocar?

      22tocaram0ainda não

      Grave um vídeo tocando Metal Is The Law e mande pra gente!

      00:00 / 00:00
      outros vídeos desta música
      repetirqualidadeautomática
      Outro vídeos desta música
        00:00 / 00:00
        automática
        Capítulos
        • Tocando a música
        • Dicas Iniciais / Equipamentos
        • Acordes da Introdução
        • Tocando Introdução
        • Introdução - Riff 1
        • Introdução - Riff 2
        • Dicas da Primeira Parte
        • Acordes do Riff 3
        • Tocando Primeira Parte
        • Primeira Parte - Riff 3
        • Acordes do Refrão
        • Tocando Refrão
        • Ritmo do Refrão
        • Encerrameto
        • Ficha Técnica
        OK