Cifra Club

Aprenda

Metal Massacre Attack

Massacration

Cifra: Principal (violão e guitarra)
tom: C
### Afinação da Guitarra : Eb  [Eb,Ab,Db,Gb,Bb,Eb] ###

     Intro                           Main Riff
e--------------------|---------------------------------------
B-17\////------------|---------------------------------------
G--------------------|-------------------------------9-9/----
D---------14/--------|---9-------9-----9-----9---9---9-9/----
A---------14/--------|---9-------9-----9-----9---9---7-7/----
E--------------------|---7-7-7-7-7-7-7-7-7-7-7-7-------------
                         (P.M.--------------------)  


Refrao 1 :

e----------------------------------------------------------
B----------------------------------------------------------
G----------------------------------------------------------
D--9--8--7--7-----7-----7-----7-----7--9-----9-----9-----9-
A--9--8--7--7-----7-----7-----7-----7--9-----9-----9-----9-
E--7--6--5--5-5-5-5-5-5-5-5-5-5-5-5-5--7-7-7-7-7-7-7-7-7-7-
            Rarueeeeeee Raruooooooooooooooooooooo
e---------------------------------------------------------
B---------------------------------------------------------
G---------------------------------------------------------
D--9--8--7--7-----7-----7-7-7-7----9-----9-----9-----9----
A--9--8--7--7-----7-----7-7-7-7----9-----9-----9-----9----
E--7--6--5--5-5-5-5-----5-5-5-5----7-7-7-7-7-7-7-7-7-7----
 
Refrao 2 :
e--------------------------------------------------------
B--------------------------------------------------------
G---7-----7-----7--9-----9-----9-------------------------
D---7-----7-----7--9-----9-----9--9-----9-----9-----9----
A---5-5-5-5-5-5-5--7-7-7-7-7-7-7--9-----9-----9-----9----
E---------------------------------7-7-7-7-7-7-7-7-7-7----

e-------------------------------------------------------------
B-------------------------------------------------------------
G---7-----7-----7--9-9-9-9------------------------------------
D---7-----7-----7--9-9-9-9-----9-----9-----9----9---9---9---9-
A---5-5-5-5-5-5-5--7-7-7-7-----9-----9-----9----9---9---9---9-
E------------------------------7-7-7-7-7-7-7-7-7-7-7-7-7-7-7--

 Fim do Refrao
e--------------
B--------------
G--------------
D---9-9-9-9----
A---9-9-9-9----
E---7-7-7-7----

SOLO
e-------------------------------------------14--17--19--
B--17b(19)---17b(19)p15-----15~~~---15tr17--------------
G-----------------------16------------------------------
D-------------------------------------------------------
A-------------------------------------------------------
E-------------------------------------------------------

e--17-14--------------------------------------------------------
B--------17-15--------------------------------------------------
G---------------16--14---16b(19)-16-16-16b(19)-16-16-16b(19)--16
D---------------------------------------------------------------
A---------------------------------------------------------------
E---------------------------------------------------------------



Intro (1x)
Main Riff (14x)
Refrao 1 (1x) 
Main Riff(1x)
Refrao 2 (1x)
Main Riff(1x)
Fim do Refrao (1x)
SOLO
Refrao 2 (1x)
Main Riff (1x)
Fim do Refrao(1x)

Letra da Música :

Introdução ( E F E F E F )Segue com essa introdução até a parte do Raru-êêêêêêê Raru-ôôôôôôô

Far away

Across the sea

Master never grow

Now the way

Against the fear
                     E D C
Master will is sure 
             D
Raru-êêêêêêê
             ( E F E F E F )E D C
Raru-ôôôôôôô
      D             ( E F E F E F )
Metal war go alone
D            
Raru-êêêêêêê
            C 
Raru-ôôôôôôô
D                   ( E F E F E F )
Metal war go alone
Composição de Massacration
Colaboração e revisão:
  • Alexandre Mazzucatto
72.039 exibições
    • ½ Tom
    • A
    • Bb
    • B
    • C
    • Db
    • D
    • Eb
    • E
    • F
    • F#
    • G
    • Ab
  • Adicionar à lista

    0 comentários

    Ver todos os comentários

    Conseguiu tocar?

    4 Tocaram 0 Ainda não

    Grave um vídeo tocando Metal Massacre Attack e nos envie!

    00:00 / 00:00
    Outros vídeos desta música
    Repetir Qualidade Automático
    Outros vídeos desta música
    00:00 / 00:00
    Automático

    Cifra Club Pro

    Aproveite o Cifra Club com benefícios exclusivos e sem anúncios
    Cifra Club Pro
    Aproveite o Cifra Club com benefícios exclusivos e sem anúncios
    OK