Cifra Club

Metal Massacre Attack

Massacration

Tab de baixo: Versão 2
Intro (guitarra) - entrar no tempo certo!
|-------------------------------------------------------------
|-------------------------------------------------------------
|-------------------------------------------------------------
|----5----55-----5--------5/17--------------------------------

"N" vezes
|-------------------------------------------------------------
|-------------------------------------------------------------
|-------------------------------------------------------------
|-5-555555--5-555555--5-555555--5-555555--5--555555--5-555555-

Refrão
|-------------------------------------------------------------------
|-------------------------------------------------------------------
|-------------------------------------------------------------------
|--5-555-543-333333-3-333333--3-333-5-555555--5-555555--5-55543-----

|---------------------------------------------------------------------
|---------------------------------------------------------------------
|---------------------------------------------------------------------
|-3-333333--3-3333-3-3-3-3--5-555555--5-555555--5-555555-5-555555-----

|-------------------------------------------------------------
|-------------------------------------------------------------
|--3-333333--3-333333--5-555555--5-555555---------------------
|-----------------------------------------5-555555--5-555555--

|----------------------------------------------------------------------------
|----------------------------------------------------------------------------
|--3-333333--3-333333--5-555555--5-555-5-5-5/0-------------------------------
|-----------------------------------------------5-555555--5-555555-5-555555--

Base do Solo
|-------------------------------------------------------------------
|-------------------------------------------------------------------
|-------------------------------------------------------------------
|--5-555-543-333333-3-333333--3-333-5-555555--5-555555--5-55543-----

|---------------------------------------------------------------------
|---------------------------------------------------------------------
|---------------------------------------------------------------------
|-3-333333--3-3333-3-3-3-3--5-555555--5-555555--5-555555-5-555555-----

Volta o vocal
|-------------------------------------------------------------
|-------------------------------------------------------------
|--3-333333--3-333333--5-555555--5-555555---------------------
|-----------------------------------------5-555555--5-555555--

|---------------------------------------------------------------------------------------
|---------------------------------------------------------------------------------------
|--3-333333--3-333333--5-555555--5-555-5-5-5/0------------------------------------------
|-----------------------------------------------5-555555--5-555555-5-555555-5-5-5-5-5/0-
Composição de Massacration
Colaboração e revisão:
  • Bruno Balberith
990 exibições

0 comentários

Ver todos os comentários

Conseguiu tocar?

0 Tocaram 0 Ainda não

Grave um vídeo tocando Metal Massacre Attack e nos envie!

00:00 / 00:00
Outros vídeos desta música
Repetir Qualidade Automático
Outros vídeos desta música
00:00 / 00:00
Automático

Cifra Club Pro

Aproveite o Cifra Club com benefícios exclusivos e sem anúncios
Cifra Club Pro
Aproveite o Cifra Club com benefícios exclusivos e sem anúncios
OK