Cifra Club

Metal Milf

Massacration

Cifra: Principal (violão e guitarra)
tom: F# (forma dos acordes no tom de G) Afinação: Eb Ab Db Gb Bb Eb
(Introdução)
E|------------------------------------------------------------------|
B|------------------------------------------------------------------|
G|---------------------------------4/5\4--2---5/7-------------------|
D|-----2-x-x-x-2---5-x-x-x-x-x-x---4/5\4--2---5/7----2-x-x-x-x-x-x--|
A|-----2-x-x-x-2---5-x-x-x-x-x-x---2/3\2--0---3/5----2-x-x-x-x-x-x--|
E|-----0-x-x-x-0---3-x-x-x-x-x-x---------------------0-x-x-x-x-x-x--|

E|------------------------------------------------------------------|
B|------------------------------------------------------------------|
G|---------------------------------4/5\4--2---5/7-------------------|
D|-----2-x-x-x-2---5-x-x-x-x-x-x---4/5\4--2---5/7----2~-------------|
A|-----2-x-x-x-2---5-x-x-x-x-x-x---2/3\2--0---3/5----2~-------------|
E|-----0-x-x-x-0---3-x-x-x-x-x-x---------------------0~-------------|

Riff 1
E|---------------------|
B|---------------------|
G|---------------------|
D|----(7)---(6)---(5)--|
A|---------------------|
E|--0-----0-----0------|

Riff 2
E|----------------|
B|----------------|
G|----------------|
D|----------------|
A|---2-3-2--------|
E|----------3-2---|

E5                 Riff1
You're so old baby

G5                      Riff2
But you're so fuckin hot

E5                          Riff1
The food that makes me crazy

G5                  Riff2
Is cooked on old pot

E5                      C5
You've got nothing to lose
D5
Cuz you'll die soon
E5                  C5
You're no spring chicken baby
D5
Come into my room

(Refrão tocado com o Riff da Introdução)
Feel my fire
Suck my sword
I want my metal milf
Feel my fire
Suck my Sword
I want my metal milf

E5                      Riff1
Come on mama feed your kid

G5                  Riff2
Gimme your sexy tits

E5                      Riff1
I can give my milk to you
                  
G5                      Riff2
you give your milk to me

E5            C5
In the metal night
           D5
You are my wrinkly star
E5                     C5
She's hot but it ain't menopause
D5
Ela só quer gozar

(Refrão tocado com o Riff da Introdução)
Feel my fire
Suck my sword
I want my metal milf
Feel my fire
Suck my Sword
I want my metal milf

Feel my fire
Suck my sword
I want my metal milf
Feel my fire
Suck my Sword
I want my metal milf

(Solo De Guitarra)

Base do solo:
E|----------------------------------------|----------------------------------------| |
B|----------------------------------------|----------------------------------------| |
G|---------------------7--7---------------|---------------------5--5--7--7---------| |(2x)
D|--2------------------7--7--7--7---------|--2------------------5--5--7--7---------| |
A|--2------------------5--5--7--7---------|--2------------------3--3--5--5---------| |
E|--0--0--0--0--0--0---------5--5--5h6p5--|--0--0--0--0--0--0---------------5h6p5--| |

E|------------------------------------------------|------------------------------------------------| |
B|------------------------------------------------|------------------------------------------------| |
G|----------------------5--5-----7--7-------------|----------------------5--5-----7--7-------------| |
D|--7-----------7-------5--5-----7--7------5h7----|--7-----------7-------5--5-----7--7-------------| | (2x)
A|--7-----------7-------3--3-----5--5--5h7--------|--7-----------7-------3--3-----5--5-5-5---------| |
E|--5--5--5--5--5--5------------------------------|--5--5--5--5--5--5------------------------------| |






(Refrão tocado com o Riff da Introdução)
Feel my fire
Suck my sword
I want my metal milf
Feel my fire
Suck my Sword
I want my metal milf

(Tocar riff da Introdução até o final.)
Não interessa se ela é coroa
Panela velha é que faz comida boa
Não interessa se ela é coroa
Panela velha é que faz comida boa
Não interessa se ela é coroa
Panela velha é que faz comida boa
Não interessa se ela é coroa
Panela velha é que faz comida boa
00:00 / 00:00
Outros vídeos desta música
Repetir
Outros vídeos desta música
Composição de Bruno Sutter
Colaboração e revisão:
  • laura perroni
  • Victoor Augustoo
  • Luiz Xaxier
5.175 exibições
    • ½ Tom
    • A
    • Bb
    • B
    • C
    • Db
    • D
    • Eb
    • E
    • F
    • F#
    • G
    • Ab
  • Adicionar à lista

    0 comentários

    Ver todos os comentários

    Conseguiu tocar?

    0 Tocaram 3 Ainda não

    Grave um vídeo tocando Metal Milf e nos envie!

    00:00 / 00:00

    Cifra Club Pro

    Aproveite o Cifra Club com benefícios exclusivos e sem anúncios
    Cifra Club Pro
    Aproveite o Cifra Club com benefícios exclusivos e sem anúncios
    OK