Cifra Club

Aprenda

Metal Milf

Massacration

Cifra: Principal (violão e guitarra)
Tom: G
INTRO
E|-----------------------------------------------------------------| 
B|-------------------------------------------5/7-------------------| 
G|---------------------------------4h5p4-2---5/7-------------------| 
D|-----2-x-x-x--2------------------4h5p4-2---3/5----2-x-x-x-x-x-x--| 
A|-----2-x-x-x--2-5-x-x-x-x-x-x---------------------2-x-x-x-x-x-x--| 
E|----------------3-x-x-x-x-x-x------------------------------------|
Riff1
E|---------------|
B|---------------|
G|---------------|
D|---4--7-5-4~---|
A|---------------|
E|---------------|

Riff2
E|---------------|
B|---------------|
G|---------------|
D|---------------|
A|--7-5~h0-------|
E|---------------|

E5                 Riff1
You're so old baby

G5                      Riff2
But you're so fuckin hot

E5                          Riff1
The food that makes me crazy

G5                  Riff2
Is cooked on old pot

E5                      C5
You've got nothing to lose
D5
Cuz you'll die soon
E5                  C5
You're no spring chicken baby
D5
Come into my room

REFRÃO TOCA O RIFF DA INTRO
Feel my fire
Suck my sword
I want my metal milf
Feel my fire
Suck my Sword
I want my metal milf

E5                      Riff1
Come on mama feed your kid

G5                  Riff2
Gimme your sexy tits

E5                      Riff1
I can give my milk to you
                  
G5                      Riff2
you give your milk to me

E5            C5
In the metal night
           D5
You are my wrinkly star
E5                     C5
She's hot but it ain't menopause
D5
Ela só quer gozar

REFRAO 
Feel my fire
Suck my sword
I want my metal milf
Feel my fire
Suck my Sword
I want my metal milf

Feel my fire
Suck my sword
I want my metal milf
Feel my fire
Suck my Sword
I want my metal milf

SOLO DE GUITARRA

Feel my fire
Suck my sword
I want my metal milf
Feel my fire
Suck my Sword
I want my metal milf

TOCA O RIFF DA INTRO
Não interessa se ela é coroa
Panela velha é que faz comida boa
Não interessa se ela é coroa
Panela velha é que faz comida boa
Não interessa se ela é coroa
Panela velha é que faz comida boa
Não interessa se ela é coroa
Panela velha é que faz comida boa
Composição de Massacration
Colaboração e revisão:
  • Victoor Augustoo
  • Luiz Xaxier
3.674 exibições
    • ½ Tom
    • A
    • Bb
    • B
    • C
    • Db
    • D
    • Eb
    • E
    • F
    • F#
    • G
    • Ab
  • Adicionar à lista

    0 comentários

    Mostrar mais comentários

    Conseguiu tocar?

    0 Tocaram 3 Ainda não

    Grave um vídeo tocando Metal Milf e mande pra gente!

    00:00 / 00:00
    outros vídeos desta música
    repetir qualidade Automático
    Outros vídeos desta música
    00:00 / 00:00
    Automático

    Cifra Club Pro

    Aproveite o Cifra Club com benefícios exclusivos e sem anúncios
    7 dias grátis
    Cifra Club Pro
    Aproveite o Cifra Club com benefícios exclusivos e sem anúncios
    7 dias grátis
    OK