Cifra Club

Aprenda

Metal Milk-shake (versão 2)

Massacration

Cifra: Principal (violão e guitarra)
tom: D
Afinação: Padrão ( E A D G B e )

-comece a tocar numa velocidade mais lenta (primeiro qualidade)
-os x são notas percussivas (não deixe a nota soar claramente)



RIFF 1
  
   V v ^ v v V  v  ^  V    V v ^ v v V v ^ v   
e|-----------------------|-------------------|
B|-----------------------|-------------------|
G|-7-x-x-x-x-10-x--x--10-|-7-x-x-x-x-5-x-x-x-|
D|-7-7-7-7-9-10-10-10-10-|-7-7-7-7-4-5-5-5-5-|
A|-5-5-5-5-7-8--8--8--8--|-5-5-5-5-2-3-3-3-3-|
E|-----------------------|-------------------|

   V v ^ v v V  v  ^  V    V  v  ^  v  V  V 
e|-----------------------|-------------------|
B|-----------------------|-------------------|
G|-7-x-x-x-x-10-x--x--10-|-12-x--x--x--12-12-|
D|-7-7-7-7-9-10-10-10-10-|-12-12-12-12-12-12-|
A|-5-5-5-5-7-8--8--8--8--|-10-10-10-10-10-10-|
E|-----------------------|-------------------|

OBS: Executar o riff no estilo do Iron Maiden, cavalgado, bem rápido 
(fique atento às indicações - palhetada p baixo v e para cima ^)
- Os V são palhetadas mais fortes e v palhetadas mais leves.



RIFF 2
  
   V ^ V   V  ^  V    V  ^  V    v  v v  v v v  
e|-------|----------|----------|---------------|
B|-------|----------|----------|---------------|
G|-x-x-x-|-x--x--x--|-x--x--x--|-10-9-10-9-7-5-|
D|-7-7-7-|-10-10-10-|-12-12-12-|-8--7-8--7-5-3-|
A|-5-5-5-|-8--8--8--|-10-10-10-|---------------|
E|-------|----------|----------|---------------|

   V ^ V   V  ^  V    V  ^  V    v v v v v v  
e|-------|----------|----------|---------------|
B|-------|----------|----------|---------------|
G|-x-x-x-|-x--x--x--|-x--x--x--|---------------|
D|-7-7-7-|-10-10-10-|-12-12-12-|-3-3-3-5-5-5---|
A|-5-5-5-|-8--8--8--|-10-10-10-|-1-1-1-3-3-3---|
E|-------|----------|----------|---------------|



RIFF 3 (ponte)

-Igual o Riff 2, só que tocado com palhetada alternada, muito rápido 
(semicolcheia)!



SOLO (a base do solo é o riff 2)

e|---------------------6--------------------------------6-6-6--8-7-------------------------------|
B|-9-7-6---6-7-9-9-9------9-7-7-7---7-5/7--9-7-6------6-------------9-9-9---6-7-9--6-7-9-7-6-4---|
G|-------7------------------------------------------8-------------------------------------------6|
D|-----------------------------------------------------------------------------------------------|
A|-----------------------------------------------------------------------------------------------|
E|-----------------------------------------------------------------------------------------------|
(TIRADO POR Alê "poetanegro")

Maior loucura! Em vez de se matar tentando tirar o solo original 
(que é tocado pelos músicos do Angra!), experimente tocar algo em 
cima da pentatônica menor de D ou B, fica muito legal!



_________Letra da música (e onde aplicar os riffs)___________


Intro (Riff 1)
AAAAAAAAAAAAAAAAAAAAAAAAAAAAAAAAAAHHHHHHHHH!!!!!!     
Lunch! Lunch! Lunch!   (Riff 2)

Hot Dog 
Milk Shake 
Sunday 
Mayday

People
Table  
Walkman 
Umbrelaaaaaaaaaaaaaaaaaa(Riff 1)

Round one (Riff 2)
Fight! 
Final Lap
Start
 
Game over 
Playstation
atariiiiiiaaaaaaaaaaaaaaaaa(Riff 1)  -  SOLO

Playback  (Riff 2)
Ketchup! 
Brother 
Away!
 
Marshmellow 
O.K. 
Michael Jackson
 
Maclaren, bacon, greatest hits (Riff 3)
Fax modem, internet, puff, metal
Playback, I love you, pause, stop 
MICHAEL JACKSON aaaaaaaaaaaaaaaaaa!!!!!  (Riff 1 até o final)
UÔÔÔÔÔU 
Refrão: Metal are the gods, metal are the gods
Compositor não encontrado.
Colaboração e revisão:
  • Alexandre Magalhães
40.583 exibições
    • ½ Tom
    • A
    • Bb
    • B
    • C
    • Db
    • D
    • Eb
    • E
    • F
    • F#
    • G
    • Ab
  • Adicionar à lista

    0 comentários

    Ver todos os comentários

    Conseguiu tocar?

    0 Tocaram 0 Ainda não

    Grave um vídeo tocando Metal Milk-shake (versão 2) e nos envie!

    00:00 / 00:00
    Outros vídeos desta música
    Repetir Qualidade Automático
    Outros vídeos desta música
    00:00 / 00:00
    Automático

    Cifra Club Pro

    Aproveite o Cifra Club com benefícios exclusivos e sem anúncios
    Cifra Club Pro
    Aproveite o Cifra Club com benefícios exclusivos e sem anúncios
    OK