Cifra Club

The Bull

Massacration

Cifra: Principal
exibições 65.626
Tom: E
      D#m
E|-----------6---------------|
B|---------7---7-------------|
G|-------8-------8-----------|
D|-----8-----------8---------| 
A|---6---------------6-------| 
E|---------------------------|

      D#m             C#
E|-----------6---------------4-------|
B|---------7---7-----------6---6-----|
G|-------8-------8-------6-------6---|
D|-----8---------------6-------------|
A|---6---------------4---------------|
E|-----------------------------------|

D#m
Hey little garçon come here
C#
Give me a glass of cachaça
D#m
I want to stay very crazy
C#
But tonight you drink too much

D#m
I am very magoation
C#
My girl made a little trairation
D#m
Now I am living in fudation
C#
Cos' tonight you are the bull

(  G#  Bb )

B            C#          D#m
Cos' tonight you are the bull
Cos' tonight you are the bull
Cos' tonight you are the bull
Big Richard is terrible
E|------------------------------------|
B|------------------------------------|
G|------------------------------------|
D|-9-9-9-9-----7-6-4-6-4---4----------| (8x)
A|-6-6-6-6---------------7---7-6-7-6--|
E|------------------------------------|
   * * *

D#m
It's like a sword made of iron
B          Bb      C#m
Encravated in the chest
D#m
Something´s wrong,
something is growing
B       Bb      C#m
Growing in my test

D#m
My heart is burning in the fire
B      Bb       C#m
In the fire of hell
D#m
She was a bitch, she was a whore
B      Bb        C#m
She sacanate me well yeah!!!!

( C#  D#m )

D#m
I understand he's very rich
B    Bb      C#m
He's intelligent
D#m
He's very strong, his hair is long
B    Bb     C#m
His car is excellent

D#m
I was in the show with all my friends
B     Bb      C#m
My friends headbenzes
D#m
The chains of steel aprisionated me
B     Bb     C#m
In the corno's land

Refrão:
D#m
She was at four she was in my bed
C#
With the big Richard kissing her ass
B             C#         D#m
Cos tonight you are the bull

D#m
She was at four she was in my bed
C#
With the big Richard kissing her ass
B             C#       D#m
Cos tonight you are the bull (+4x)

 Solo: D#m  C#  B  C#  D#m
E|--6-----(4x)--11-----(4x)--11-14-16-(4X)--14-11-14-11----11----11--|
B|--9b11--(4x)--14b16--(4x)-----------------------------14----14-14--|
G|-------------------------------------------------------------------|
D|-------------------------------------------------------------------|
A|-------------------------------------------------------------------|
E|-------------------------------------------------------------------|

E|--11-14-16b(18)16b(18)16b(18)16b(18)16b(18)-16-14-16-14-16-16b(18)-|
B|-------------------------------------------------------------------|
G|-------------------------------------------------------------------|
D|-------------------------------------------------------------------|
A|-------------------------------------------------------------------|
E|-------------------------------------------------------------------|

E|--14-16-14-16-11-11-14-16-14-16-14-11-11-14-16-14-11-14-11----11----11------------------|
B|-----------------------------------------------------------14----14----14-11-14-14b(16)-|
G|----------------------------------------------------------------------------------------|
D|----------------------------------------------------------------------------------------|
A|----------------------------------------------------------------------------------------|
E|----------------------------------------------------------------------------------------|

E|-----------------------------------------------11h14p11-(6x)--------|  
B|-----------------11h14p11-(6x)--14h16p14-(6x)-----------------------|  
G|--11h13p11-(6x)-----------------------------------------------------|
D|--------------------------------------------------------------------|  
A|--------------------------------------------------------------------|  
E|---------------------------------------------------------------16\x-|  

D#m
Hey little garçon come here
C#
I´m very magoation
D#m
I want to leave massacration
B             C#       D#m
Big Richard is terrible
Acordes para:

    0 comentários

      mostrar mais comentários

      Conseguiu tocar?

      14tocaram1ainda não

      Grave um vídeo tocando The Bull e mande pra gente!

      00:00 / 00:00
      outros vídeos desta música
      repetirqualidadeautomática
      Outro vídeos desta música
        00:00 / 00:00
        automática
        OK