Cifra Club

Aprenda

The God Master

Massacration

Cifra: Principal (violão e guitarra)
tom: C
Intro e entre as piadas:

e|-------------------------------------------------------------------------------|
B|-------------------------------------------------------------------------------|
G|-------------------------------------------------------------------------------|
D|--------7-9-10-12-10-9-7-------------------------------------------------------|
A|--0-0-0------------------0-0-8-0-0-7-0-0-6-6-----------------------------------|
E|-------------------------------------------------------------------------------|

Na hora das piadas repita isso: (dê só palhetadas pra baixo)

e|-----------------------------------------------------------------|
B|-----------------------------------------------------------------|
G|-----------------------------------------------------------------|
D|-----------------------------------------------------------------|
A|--7...-7/5/7-----------------------------------------------------|
E|--5...-5/3/5-----------------------------------------------------|
OBS: ... é pra vc toca a nota 11
(OBS 2: o slide é de ida e volta vai do 5-7 a 5-3 e volta 5-7 sem toca)
                     
/  = slide
Composição de Massacration
Colaboração e revisão:
  • Gabriel Franceschini
  • Marcio Ganzer
11.133 exibições
    • ½ Tom
    • A
    • Bb
    • B
    • C
    • Db
    • D
    • Eb
    • E
    • F
    • F#
    • G
    • Ab
  • Adicionar à lista

    0 comentários

    Ver todos os comentários

    Conseguiu tocar?

    1 Tocaram 0 Ainda não

    Grave um vídeo tocando The God Master e nos envie!

    00:00 / 00:00
    Outros vídeos desta música
    Repetir Qualidade Automático
    Outros vídeos desta música
    00:00 / 00:00
    Automático

    Cifra Club Pro

    Aproveite o Cifra Club com benefícios exclusivos e sem anúncios
    Cifra Club Pro
    Aproveite o Cifra Club com benefícios exclusivos e sem anúncios
    OK