Cifra Club

Aprenda

The Mummy (intro)

Massacration

Cifra: Principal (violão e guitarra)
tom: C
E|-----------------------------------------| (3x)
B|-----------------------------------------|
G|-----5--7---9--9--9--9-------------------|
D|-----5--7---9--9--9--9-------------------|
A|-----3--5---7--7--7--7-------------------| pm
E|-----------------------------------------|

E|-----------------------------------------------|
B|-------------------------------------6p8/9-----|
G|------------7/9-------------------5p6----------|
D|-3-x-x------7/9-3-x-x----------7p9-------------|
A|-3-x-x-(7x)-5/7-3-x-x-(7x)-8p10----------------|
E|-1-x-x----------1-x-x--------------------------|

Compositor não encontrado.
Colaboração e revisão:
  • breno s
  • Leonardo Rodrigues
7.278 exibições
    • ½ Tom
    • A
    • Bb
    • B
    • C
    • Db
    • D
    • Eb
    • E
    • F
    • F#
    • G
    • Ab
  • Adicionar à lista

    0 comentários

    Ver todos os comentários

    Conseguiu tocar?

    0 Tocaram 0 Ainda não

    Grave um vídeo tocando The Mummy (intro) e nos envie!

    00:00 / 00:00
    Outros vídeos desta música
    Repetir Qualidade Automático
    Outros vídeos desta música
    00:00 / 00:00
    Automático

    Cifra Club Pro

    Aproveite o Cifra Club com benefícios exclusivos e sem anúncios
    Cifra Club Pro
    Aproveite o Cifra Club com benefícios exclusivos e sem anúncios
    OK