Cifra Club

The Mummy

Massacration

Cifra: Principal
exibições 45.868
Tom: F (com acordes na forma de F#) Afinação: Eb Ab Db Gb Bb Eb
E|--------------------------------
B|--------------------------------
G|--------------------------------
D|7--9------------7--9------------
A|5--7--4~~--4~~--5--7--4~~--4~~--
E|------2~~--2~~--------2~~--2~~--

(riff principal)
E|------------------------------------------------------------------
B|------------------------------------------------------------------
G|------------------------------------------------------------------
D|--7---9---11------11------11-----11-------11-------11-----11------
A|--5---7---9--x-x--9--x-x--9--x-x--9--x-x--9--x-x--9--x-x--9--x-x--
E|------------------------------------------------------------------

E|-----------------------------------------------------------------
B|-----------------------------------------------------------------
G|------------------------------------------------------11-13-14~--
D|--7--9--11------11------11-------11------------9-11-12-----------
A|--5--7--9--x-x--9--x-x--9---x-x--9--x-x-9-11-12------------------
E|-----------------------------------------------------------------

(refrão)
E|------------------------------------------------------------------------------------
B|------------------------------------------------------------------------------------
G|------------------------------------------------------------------------------------
D|-7~-x-11-x-11/9~-11-11/9-9/11---- ← /-4--\--|(fim do →  9-    11-    12-    14-
A|-5~-x-9--x-9-/7~-9--9-/7-7/9----- ← \vezez/-| refrao)→  7- 4X 9-- 4X 10- 4X 12- 4X--
E|------------------------------------------------------------------------------------

(solo) (nas notas que tem * usa a alavanca)
E|-------------------------------------------------------------------------------
B|-12-14-15-14-15-14-12*--12-14-15-14-15-14-12*--12-14-15-14-15-14-15-17-19*-----
G|-------------------------------------------------------------------------------  (2x)
D|-------------------------------------------------------------------------------
A|-------------------------------------------------------------------------------
E|-------------------------------------------------------------------------------

(essa parte e bem rapida)
E|----------------------------------------------------------------------------------
B|-19-19-17-15-17-15---15-----------------------------------------------------------
G|-------------------17--17-15-17-15-13h15p13-10h12p10---10-------------------------
D|-----------------------------------------------------12---12-10-12-10-------------
A|----------------------------------------------------------------------12-10-10/12-
E|----------------------------------------------------------------------------------

(solo usa hammer on)
E|-------------------------------------------------------------------
B|-------------------------------------------------------------------
G|--12h13p12h13--12h13p12h13--12h13p12h13--12h13p12h13---------------
D|-------------------------------------------------------------------
A|-------------------------------------------------------------------
E|-------------------------------------------------------------------

E|-------------------------------------------------------------------
B|--18h19p18h19--18h19p18h19--18h19p18h19--18h19p18h19---------------
G|-------------------------------------------------------------------
D|-------------------------------------------------------------------
A|-------------------------------------------------------------------
E|-------------------------------------------------------------------

E|-------------------------------------------------------------------
B|--10-9-7-9-7-6--10-9-7-9-7-6--10-9-7-9-7-6--10-9-7-9-7-6-----------
G|-------------------------------------------------------------------
D|-------------------------------------------------------------------
A|-------------------------------------------------------------------
E|-------------------------------------------------------------------

(palhetar bem rapido as notas)
E|-------------------------------------------------------------------
B|--5-7-9-11-12-14-15-17-19~~----------------------------------------
G|-------------------------------------------------------------------
D|-------------------------------------------------------------------
A|-------------------------------------------------------------------
E|-------------------------------------------------------------------

(riff final - palhetar rapido as notas)
E|-------------------------------------------------------------------
B|-------------------------------------------------------------------
G|-------------------------------------------------------------------
D|--8----10---12----10---12----14------------------------------------
A|--6-xx-8-xx-10-xx-8-xx-10-xx-12-xx---------------------------------
E|-------------------------------------------------------------------

(tumba lacatumba tumbatá...)
E|-------------------------------------------------------------------
B|-------------------------------------------------------------------
G|-------------------------------------------------------------------
D|--11------11------11------11------11------7--9--11-----11------11--
A|--9--x-x--9--x-x--9--x-x--9--x-x--9--x-x--5--7--9--xx--9--x-x--9---  (2x)
E|-------------------------------------------------------------------
Acordes para:
    Colaboração e revisão:

    0 comentários

      mostrar mais comentários

      Conseguiu tocar?

      22tocaram0ainda não

      Grave um vídeo tocando The Mummy e mande pra gente!

      00:00 / 00:00
      outros vídeos desta música
      repetirqualidadeautomática
      Outro vídeos desta música
        00:00 / 00:00
        automática
        OK