Cifra Club

March Of The Fire Ants

Mastodon

Cifra: Principal (violão e guitarra)
tom: E
A G C F A D

Intro 1: x2
|-------------------------------------------------------------|
|-------------------------------------------------------------|
|-------------------------------------------------------------|
|-------------------------------------------------------------|
|-2-5-3-2h3p2-2h3p2-2h3p2----2h3p2-2h3p2----2h3p2-2h3p2-2h3p2-|
|-0-3-1-0-----------------0--------------0--------------------|
|
|-------------------------------------------------------------|
|-------------------------------------------------------------|
|-------------------------------------------------------------|
|-------------------------------------------------------------|
|*|
|*|

|-------------------------------------------------------------|
|-------------------------------------------------------------|
|-------------------------------------------------------------|
|-------------------------------------------------------------|
|-2-5-3-2h3p2-2h3p2-2h3p2----2h3p2-2h3p2----2h3p2-2h3p2-2h3p2-|
|-0-3-1-0-----------------0--------------0--------------------|
|
|-------------------------------------------------------------|
|-------------------------------------------------------------|
|-------------------------------------------------------------|
|-------------------------------------------------------------|
|-2-5-3-2-----------------------------------------------------|
|-0-3-1-0-----------------------------------------------------|

Intro 2: x4
|----------------------------------------------------------------------|
|----------------------------------------------------------------------|
|--------h9p8-8h9p8-8h9p8-------------------11h12p11-11h12p11-11h12p11-|
|---------------------------9h10p9-9h10p9------------------------------|
|-2-5-3-2--------------------------------------------------------------|
|-0-3-1-0-----------------0---------------0----------------------------|
|
|                                                                    Bridge 1:
|-------------------------------------------------------------| |-------|
|-------------------------------------------------------------| |-------| 
|-------------------------------------------------------------| |-------| 
|-------------------------------------------------------------| |-------| 
|-2-5-3-2h3p2-2h3p2-2h3p2----2h3p2-2h3p2----2h3p2-2h3p2-2h3p2-| |-2-5-3-|  
|-0-3-1-0-----------------0--------------0--------------------| |-0-3-1-| 

Verse 1:
|--------------------------------------------------|
|--------------------------------------------------|
|--------------------------------------------------|
|-3-3-3-3-3-3-3-4----------3-3-3-3-3-3-3-4-------3-|
|-1-1-1-1-1-1-1-2-5---5-3--1-1-1-1-1-1-1-2-2---5-1-|
|-----------------3---3-1------------------0---3---|
|
|---------------------------------------------------|
|---------------------------------------------------|
|---------------------------------------------------|
|-3-3-3-3-3-3-3-4-----------3-3-3-3-3-3-3-4-------3-|
|-1-1-1-1-1-1-1-2-5---5-7ph-1-1-1-1-1-1-1-2-2---5-1-|
|-----------------3---3---------------------0---3---|

Verse 2:
|--------------------------------------------------|
|--------------------------------------------------|
|--------------------------------------------------|
|-3-3-3-3-3-3-3-4----------3-3-3-3-3-3-3-4-------3-|
|-1-1-1-1-1-1-1-2-5---5-3--1-1-1-1-1-1-1-2-2---5-1-|
|-----------------3---3-1------------------0---3---|

Verse 3:
|--------------------------------------------------|
|--------------------------------------------------|
|--------------------------------------------------|
|-3-3-3-3-3-3-3-4----------3-3-3-3-3-3-3-4-------3-|
|-1-1-1-1-1-1-1-2-5---5-3--1-1-1-1-1-1-1-2-2---5-1-|
|-----------------3---3-1------------------0---3---|
|
|-6-6-6-6-6-6-6-7----------6-6-6-6-6-6-6-7---------|
|--------------------------------------------------|
|-3-3-3-3-3-3-3-4----------3-3-3-3-3-3-3-4---------|
|------------------------------------------------3-|
|-----------------5---5-3------------------2---5-1-|
|-----------------3---3-1------------------0---3---|

|--------------------------------------------------|
|--------------------------------------------------|
|--------------------------------------------------|
|-3-3-3-3-3-3-3-4----------3-3-3-3-3-3-3-4-------3-|
|-1-1-1-1-1-1-1-2-5---5-3--1-1-1-1-1-1-1-2-2---5-1-|
|-----------------3---3-1------------------0---3---|
|
|----------------------------------------------------------|
|-11-11-11-11-11-11-11-12----------11-11-11-11-11-11-11-12-|
|-15-15-15-15-15-15-15-16----------15-15-15-15-15-15-15-16-|
|----------------------------------------------------------|
|-------------------------5---5-3--------------------------|
|-------------------------3---3-1--------------------------|

Chorus: x4
|-------0--------0-------------------|
|-------0--------0-------------------|
|-------9-------10-------------------|
|-------9-------10--------9---8---10-|
|-2-2---7--2-2---8--2-2---7---6----8-|
|-0-0-0----0-0-0----0-0-0---0---0----|

Verse 2 x2                Chorus x4

Verse 3

Interlude 1: x2
Gtr: 1
|-------------------------------------------------------------|
|-------------------------------------------------------------|
|----15-14----15-14----15----17-14----17-14----17----14-12----|
|-17-------17-------17----15-------15-------15----15-------15-|
|-------------------------------------------------------------|
|-------------------------------------------------------------|

|-------------------------------------|
|-------------------------------------|
|-14-12----14----15-12----15-12----15-|
|-------15----13-------13-------13----|
|-------------------------------------|
|-------------------------------------|

Gtr: 2
|-------------------------------------------------|
|-------------------------------------------------|
|-------------------------------------------------|
|-12----12-12--10----10-10--10----10-10--8----8-8-|
|-10----10-10---8-----8--8---8-----8--8--6----6-6-|
|-------------------------------------------------|

Interlude 2: x2
Gtr: 1
|-------------------------------------------------------------|
|-------------------------------------------------------------|
|----15-14----15-14----15----17-14----17-14----17----14-12----|
|-17-------17-------17----15-------15-------15----15-------15-|
|-------------------------------------------------------------|
|-------------------------------------------------------------|

|-------------------------------------|
|-------------------------------------|
|-14-12----14----15-12----15-12----15-|
|-------15----13-------13-------13----|
|-------------------------------------|
|-------------------------------------|

Gtr: 2
|--------------------------------------------------------------|
|--------------------------------------------------------------|
|--------------------------------------------------------------|
|-----8--7-----8--7-----8----10--7----10--7----10-----7--5-----|
|-10-------10-------10-----8--------8--------8-----8--------8--|
|--------------------------------------------------------------|

|------------------------------------|
|------------------------------------|
|------------------------------------|
|-7--5-----7-----8--5----8--5-----8--|
|-------8-----6--------6-------6-----|
|------------------------------------|

Interlude 3: x2
Gtr: 1
|-------------------------------------------------------------|
|-------------------------------------------------------------|
|----15-14----15-14----15----17-14----17-14----17----14-12----|
|-17-------17-------17----15-------15-------15----15-------15-|
|-------------------------------------------------------------|
|-------------------------------------------------------------|

|-------------------------------------|
|-------------------------------------|
|-14-12----14----15-12----15-12----15-|
|-------15----13-------13-------13----|
|-------------------------------------|
|-------------------------------------|

Gtr: 2
|--------------------------------------------------------------|
|--------------------------------------------------------------|
|-----8--7-----8--7-----8----10--7----10--7----10-----7--5-----|
|-10-------10-------10-----8--------8--------8-----8--------8--|
|--------------------------------------------------------------|
|--------------------------------------------------------------|

|------------------------------------|
|------------------------------------|
|-7--5-----7-----8--5----8--5-----8--|
|-------8-----6--------6-------6-----|
|------------------------------------|
|------------------------------------|

Interlude 2 x2

Outro: x4
|-----------------------------0---------0-----------------|
|---------0---------0-------------------------------------|
|--------------------------------------------------0------|
|------------------------------------------7-7-------7--7-|
|-2-2-------2-2----------------------------5-5-------5--5-|
|-0-0-3/5---0-0-3/5---3h5h6p5---3h5h6p5--------6-4--------|

|------------------------------|
|------------------------------|
|-----------------0------------|
|---------7-7-------7-7--------|
|---------5-5-------5-5--------|
|-6-4-6-4-----6-4--------4-6-4-|

|--------------------------------------------------------------|
|--------------------------------------------------------------|
|-------------8b-------------8b--------------6b-------------6b-|
|--------------------------------------------------------------|
|*|
|--------------------------------------------------------------|
|
|----------------------------------------------------------|
|----------------------------------------------------------|
|----------------------------------------------------------|
|----------------------------------------------------------|
|----------------------------------------------------------|
|*.-|

Intro 1

Ending:
|---------|
|---------|
|---------|
|---------|
|-2-5-3-2-|
|-0-3-1-0-|
00:00 / 00:00
Outros vídeos desta música
Repetir
Outros vídeos desta música
Composição de Mastodon
476 exibições
    • ½ Tom
    • A
    • Bb
    • B
    • C
    • Db
    • D
    • Eb
    • E
    • F
    • F#
    • G
    • Ab
  • Adicionar à lista

    0 comentários

    Ver todos os comentários

    Conseguiu tocar?

    0 Tocaram 0 Ainda não

    Grave um vídeo tocando March Of The Fire Ants e nos envie!

    Entre para oCifra Club PRO

    Tenha acesso a benefícios exclusivos no App e no Site

    • Chega de anúncios

    • Prioridade de compra em lançamentos

    • Mais recursos no app do Afinador

    • Atendimento Prioritário

    • Descontos nos produtos Cifra Club

    • Ajude a produzir mais conteúdo

    00:00 / 00:00

    Cifra Club Pro

    Aproveite o Cifra Club com benefícios exclusivos e sem anúncios
    Cifra Club Pro
    Aproveite o Cifra Club com benefícios exclusivos e sem anúncios
    OK