Cifra Club

A Pocket Full Of Shells

Mat Mchugh

Cifra: Principal (violão e guitarra)
tom: E (forma dos acordes no tom de C) Capotraste na 4ª casa
Intro: Am  F  C  G  (2x)

(dedilhado da intro, da primeira e segunda parte da musica)

     Am                         F
E|---------------------------|---------------------------|
B|--------5-----------5------|-------5------------5------|
G|----------6---4h6-----6----|---------6----4h6-----6----|
D|------6----6------6-----6--|-----7-----6------6-----7--|
A|--4-----------4------------|---------------------------|
E|---------------------------|--5-----------5------------|

     C                          G
E|---------------------------|---------------------------|
B|-------5------------5------|-------4------4h5---4------|
G|---------4------------4----|---------4------------4----|
D|-----6-----6--4h6-6-----6--|-----4-----4------4-----4--|
A|--7-----------7------------|---------------------------|
E|---------------------------|--7-----------7------------|

(1ª parte)
I got a pocket full of shells,
And not much of anything else.
I got a locket full of notes,
Old melodies, uncounted votes

And it’s been so long since I’ve seen you
And I’ve been so gone and out of my mind
And things they move on, but I just need you
So I still wait for you most every night

     F                          G
E|---------------------------|---------------------------|
B|-------5------------5------|-------7------------7------|
G|---------6----4h6-----6----|---------8----4h8-----8----|
D|-----7-----6------6-----7--|----9------9------9-----9--|
A|---------------------------|---------------------------|
E|--5-----------5------------|--7-----------7------------|

F
When are you coming home
G
It’s so lonely here tonight...

     C
E|----------------------------|
B|-------5------------5-------|
G|---------4------------4-----| (2x)
D|-----6-----6--4h6-6-----6---|
A|--7-----------7-------------|
E|----------------------------|
(volta ao dedilhado da intro) Am  F  C  G (2x)
‎

(2ª parte)
Followed a trail of poison crumbs.
We got lost pretending, undone.
Then our blood fell from the clouds,
the wind it screamed, the sea it howled.
And every cold, dry morning, crows sing
of how there's ice forming on the lake.
And somebody called me, said they saw you.
Said you were looking older but just the same.

     F                          G
E|---------------------------|---------------------------|
B|-------5------------5------|-------7------------7------|
G|---------6----4h6-----6----|---------8----4h8-----8----|
D|-----7-----6------6-----7--|----9------9------9-----9--|
A|---------------------------|---------------------------|
E|--5-----------5------------|--7-----------7------------|

F
When are you coming home?
G
It must be freezing out today ...

     C
E|----------------------------|
B|-------5------------5-------|
G|---------4------------4-----| (2x)
D|-----6-----6--4h6-6-----6---|
A|--7-----------7-------------|
E|----------------------------|



(Refrão)
C ...
And we’ll sing Galilee, we’ll sing reverie
Dance for the broken, break these chains.
We’ll sing of wrongs and lies and alibis.
Take a chance and start again.


(Dedilhado do refrão)

     C             G         Am           F
E|--------------------------------------------------|
B|------5---------4-----------5------------5--------|
G|--------4---------4-----------6------------6------|
D|----6----6-----4---4------6----6-------7----7-----|
A|--7---------------------4-------------------------|
E|--------------7----------------------5------------|


OBS: Uma variação no C, depois do G ao final dessa frase:
Take a chance and start again.

     C               C
E|--------------------------------|
B|---------5---------------5------|
G|-----------4---------------4----|
D|----4h6-6---------4h6-6---------|
A|--7-------------7---------------|
E|--------------------------------|

Depois volta o dedilhado da intro: Am  F  C  G (2x) e depois: F  G (1x)

 Am      F
E|---------------------------|---------------------------|
B|--------5-----------5------|-------5------------5------|
G|----------6---4h6-----6----|---------6----4h6-----6----|
D|------6----6------6-----6--|-----7-----6------6-----7--|
A|--4-----------4------------|---------------------------|
E|---------------------------|--5-----------5------------|

     C                                G
E|---------------------------|---------------------------|
B|-------5------------5------|-------4------4h5---4------|
G|---------4------------4----|---------4------------4----|
D|-----6-----6--4h6-6-----6--|-----4-----4------4-----4--|
A|--7-----------7------------|---------------------------|
E|---------------------------|--7-----------7------------|

     F                                G
E|---------------------------|---------------------------|
B|-------5------------5------|-------7------------7------|
G|---------6----4h6-----6----|---------8----4h8-----8----|
D|-----7-----6------6-----7--|----9------9------9-----9--|
A|---------------------------|---------------------------|
E|--5-----------5------------|--7-----------7------------|


](volta ao refrão e a seu respectivo dedilhado).


(Final)

     CE|---------------------|
B|---------5-----5-----|
G|-----------4---4-----|
D|----4h6-6------6-----|
A|--7------------7-----|
E|---------------------|
00:00 / 00:00
Outros vídeos desta música
Repetir
Outros vídeos desta música
Composição de Mat Mchugh
Colaboração e revisão:
  • Lucas
5.307 exibições
    • ½ Tom
    • A
    • Bb
    • B
    • C
    • Db
    • D
    • Eb
    • E
    • F
    • F#
    • G
    • Ab
  • Adicionar à lista

    0 comentários

    Ver todos os comentários

    Entre para oCifra Club PRO

    Tenha acesso a benefícios exclusivos no App e no Site

    • Chega de anúncios

    • Prioridade de compra em lançamentos

    • Mais recursos no app do Afinador

    • Atendimento Prioritário

    • Descontos nos produtos Cifra Club

    • Ajude a produzir mais conteúdo

    00:00 / 00:00

    Cifra Club Pro

    Aproveite o Cifra Club com benefícios exclusivos e sem anúncios
    Cifra Club Pro
    Aproveite o Cifra Club com benefícios exclusivos e sem anúncios
    OK