Cifra Club

Ela Não Me Perdoou

Matanza

Cifra: Principal (violão e guitarra)
Tom: C
Riff 1:
E|----------------------------|
B|----------------------------|
G|----------------------------|
D|--------------0--2-2h5--2p0-|
A|-----0--2-------------------|
E|--3--------3----------------|

Riff 2:
E|-----------------------------------|
B|-----------------------------------|
G|-----------------------------------|   (3x)
D|---------------------------2--5--2-|
A|2h3-3-3-2h3-3-3-2h3-3-3-3----------|
E|-----------------------------------|

Riff 3:
E|--------------------------------------------------------------------|
B|--------------------------------------------------------------------|
G|--------------------------------------------------------------------|
D|--------------0--2-2h5--2p0-----------------------------------------|
A|-----0--2------------------2h3-3-3-2h3-3-3-2h3-3-3-3-3-----0--2--3--|
E|--3--------3--------------------------------------------3-----------|

   C5                       G5
Do buque de rosas que eu mandei pra ela hoje
   C5          G5
Nenhuma única pétala ficou
   F5            G5    C5    B5  A5  G5
Eu acho que ela ainda não me perdoou
   F5            G5        C5
Eu acho que ela não me perdoou

   C5                           G5
Então eu tive a grande idéia de uma serenata
   C5                 G5
Levei uma pedrada que quase me matou
   F5            G5    C5    B5  A5  G5
Eu acho que ela ainda não me perdoou
   F5            G5        C5
Eu acho que ela não me perdoou

   A5            G5            F5
Eu não sei o que há de errado entender
          F5
Eu sei que não consigo
  A5               F5
Se um dia eu for assassinado
    G5                 A5
Ela vai pro inferno comigo

Riff 4:
    A5           G5
E|---------------|
B|---------------|
G|---------------|
D|---------------|
A|--0h2--3--2p0--|
E|---------------|

   (Riff 4)        (Riff 4)
Mulher difícil, que sacrifício
  F5     G5                    A5     (Riff 4)
Fazei somente o que ela vois disser
   (Riff 4)       (Riff 4)
Não tem parada, não é piada
  F5     A5            G5
Pra você ver o amor como é

       C5             F5               G5
Se a mulher que você quer, não te quer mais
     C5            F5                 G5
E você só foi perceber isso tarde de mais
     C5             F5              G5
Tudo bem, pois não faz a menor diferença no fim
   A#5
Eu tenho amigos que gostam de mim
 C5
Que não vão se importar se eu ficar
        G5                    (Riff 2)
Com a garrafa de gim, só pra mim

(Riff 3)

(repete tudo)
exibições 11.548
Acordes para:
    Composição: Jimmy London / Marcos Donida Colaboração e revisão:
    • Guilherme Z

    0 comentários

    mostrar mais comentários

    Conseguiu tocar?

    4 tocaram 0 ainda não

    Grave um vídeo tocando Ela Não Me Perdoou e mande pra gente!

    00:00 / 00:00
    outros vídeos desta música
    repetir qualidade Automático
    Outros vídeos desta música
    00:00 / 00:00
    Automático
    OK