Cifra Club

Eu Não Gosto de Ninguém

Matanza

Cifra: Principal
exibições 142.691
Tom: D
                           Riff 1 - 2x                
G|-------------------------------|-----------------------------------|
D|-4-4-4-4-3-3---2-2-2-2-0---0-2-|-4-4-4-4-3-3---2-2-2-2-0-----------|
A|-2-2---------2----------2-2----|-2-2---------2----------2-0---0----|
E|-------------------------------|----------------------------2------|
                                             
G|-------------------------------|---2/4-4-4-2-0---------------------|
D|-4-4-4-4-3-3---2-2-2-2-0---0-2-|-4-------------4-0-4/5-5-5-5-4-2---|
A|-2-2---------2----------2-2----|-2------------------------------5-4|
E|-------------------------------|-----------------------------------|

Riff 2 - 3x

G|-------------------------------|
D|-4-4-4-4-4-4-4-4---------------|
A|-2-2-0-2-2-0-2-2--0-0-2h5------|
E|-------------------2-----------|

Riff 3

G|---2/4-4-4-2-0---------------------|
D|-4-------------4-0-4/5-5-5-5-4-2---|
A|-2------------------------------5-4|
E|-----------------------------------|

base 1:

     P P P P P P P P P P P P P         P P P P P P P P P
G|-----------------------------------||------------------------------------|
D|-4-4-4-4-4-4-4-4-4-4-4-4-4-4--4-4--||-4-4-4-4-4-4-4-4-4------------------|
A|-2-0-0-2-2-0-0-2-2-0-0-2-2-0--0h2--||-0-0-2-2-0-0-2-2-2--0-0-2h5---------|
E|-----------------------------------||---------------------2--------------|

Riff 4

G|-----------------|
D|-2/4-4-4-2-0-----|
A|-------------2-0-|
E|-----------------|





B        base 1
Não me faça nenhum favor
B
Não espere nada de mim
B
Não me fale seja o que for
B
Sinto muito que seja assim

G                      E
Como se fizesse  diferença
                     B  Riff 4
O que você acha ruim
G                        E
Como se eu tivesse prometido
                       B  Riff 4
Alguma coisa pra você
G                     E
Eu nunca disse que faria o que é
direito
B                                Riff 4
Não se conserta o que já nasce com defeito
G          F#
Não tem jeito
                   E
Não há nada a se fazer
B                           D
Mesmo que eu pudesse controlar

a minha raiva
E (dedo 1 na casa 7)
Mesmo que eu quisesse conviver

com a minha dor
B                 D
Nada sairia do lugar que já estava
A
Não seria nada diferente do que sou
B
Não quero me veja 
D
Não quero que me chame
E (dedo 1 na casa 7)
Não quero que me diga
G (dedo 1 na casa 10)
Não quero que reclame
B               D              A
Eu espero que você entenda bem

Eu não gosto de ninguém 

Riff 1 (1x) 
Riff 2 (1x)

B
Não me faça nenhum favor
B
Não espere nada de mim
B
Não me fale seja o que for
B
Sinto muito que seja assim
G                       E
Como se fizesse a diferença
                     B  Riff 4
O que você acha ruim
G                        E
Como se eu tivesse prometido
                       B  Riff 4
Alguma coisa pra você
G                     E
Eu nunca disse que faria o que é
direito
B                                Riff 4
Não se conserta o que já nasce com defeito
G          F#
Não tem jeito
                   E
Não há nada a se fazer
B                           D
Mesmo que eu pudesse controlar

a minha raiva
E (dedo 1 na casa 7)
Mesmo que eu quisesse conviver

com a minha dor
B                 D
Nada sairia do lugar que já estava
A
Não seria nada diferente do que sou
B
Não quero me veja 
D
Não quero que me chame
E (dedo 1 na casa 7)
Não quero que me diga
G (dedo 1 na casa 10)
Não quero que reclame
B               D              A
Eu espero que você entenda bem

Eu não gosto de ninguém 

Riff 5

G|-------------------------|
D|-4-4-4-4-3-3---2-2-2-2-2-|
A|-2-2---------2-----------|


        Solo

G|---------------------------------------------------------------------------------------------------------------|
D|---------------------------------------------------------------7-7h9-9-9-7-------------------------------------|
A|-------------------------------------7-7-7-7-5-7-7s9-9-9-9-9-9--9----------10-9-9-9-5-5h7p5-5-5h7-7-7-7-9-10-9-|
E|-/7-7-7-7-5-7-10-10-10-10-12p10-7-10-------------------------------------------------------7-------------------|

G|------------7-----------7-7-------------7--------------------------------------------------------------------|
D|------7-7h9-7-9-7-9-7-9-7-7-9-7-9-9-7-9-7-9-7-9-7-9-7~-7-7-7-7h9p7-7-----------------------------------------|
A|-9-9-9-9----------------------------------------------------------9-7h9-9-9-9-7-5-5h7-7-7-5-7-5-9-5-10-9-7-5-|
E|-------------------------------------------------------------------------------------------------------------|

G|------------------------------------------------x-x-x-x-|
D|------------------2h4--4-4-4-4-3-3-2-2-2-2-2-2--x-x-x-x-|
A|-7p5--5--------2h5-----2-2--------2-------------x-x-x-x-|
E|------7-7p5-2-5---------------------------------x-x-x-x-|




B                           D
Mesmo que eu pudesse controlar

a minha raiva
E
Mesmo que eu quisesse conviver

com a minha dor
B                 D
Nada sairia do lugar que já estava
A
Não seria nada diferente do que sou
B
Não quero me veja 
D
Não quero que me chame
E (dedo 1 na casa 7)
Não quero que me diga
G (dedo 1 na casa 10)
Não quero que reclame
B               D              A
Eu espero que você entenda bem

Eu não gosto de ninguém 

      Riff 1 (1X) e deixa B soar
Acordes para:
    Colaboração e revisão:

    0 comentários

      mostrar mais comentários

      Conseguiu tocar?

      24tocaram0ainda não

      Grave um vídeo tocando Eu Não Gosto de Ninguém e mande pra gente!

      00:00 / 00:00
      outros vídeos desta música
      repetirqualidadeautomática
      Outro vídeos desta música
        00:00 / 00:00
        automática
        OK