Cifra Club

Ao Vivo e a Cores (part. Anitta)

Matheus e Kauan

Cifra: Principal (violão e guitarra)
exibições 370.758
Tom: Db (forma dos acordes no tom de G) Capotraste na 6ª casa
[Intro]  G  A  Bm  D

[Tab - Intro]

Parte 1 de 2
       G           A           Bm
E|----------x-----------x------------x------|
B|-------3--x--------2--x--------3---x------|
G|-----0----x------2----x------4-----x------|
D|---0------x----2------x----4-------x------|
A|----------x--0--------x--2---------x------|
E|-3--------x-----------x------------x------|

Parte 2 de 2
       D
E|----------x--2h3p2------------------------|
B|-------3--x--------3----------------------|
G|-----2----x-------------------------------|
D|---4------x-------------------------------|
A|-5--------x-------------------------------|
E|----------x-------------------------------|

[Primeira parte]
                   G              A
Por que você não sai daí e vem aqui?
          Bm                       D
Pode invadir, pode chegar, pode ficar
         G               A         Bm
No meu quarto, no meu abraço, apertado
         D                     G
Duvido que cê vai querer ir embora
        A
Não apavora
            Bm                      D
Depois do amor a gente vai fazendo hora
         G          A
E eu não   aguento mais
       Bm
Eu não    aguento mais

[Tab - Primeira parte 3x]

Parte 1 de 2
       G           A           Bm
E|----------x-----------x------------x------|
B|-------3--x--------2--x--------3---x------|
G|-----0----x------2----x------4-----x------|
D|---0------x----2------x----4-------x------|
A|----------x--0--------x--2---------x------|
E|-3--------x-----------x------------x------|

Parte 2 de 2
       D
E|----------x--2h3p2------------------------|
B|-------3--x--------3----------------------|
G|-----2----x-------------------------------|
D|---4------x-------------------------------|
A|-5--------x-------------------------------|
E|----------x-------------------------------|

[Variação do dedilhado final da primeira parte]

       G           A           Bm
E|----------x-----------x-------------------|
B|-------3--x--------2--x--------3----------|
G|-----0----x------2----x------4------------|
D|---0------x----2------x----4--------------|
A|----------x--0--------x--2--------x-------|
E|-3--------x-----------x-----------x-------|

[Refrão]

         G             A
A tela fria desse celular
            Bm                    D
Só ver sua foto não vai me esquentar
        G                  A
Amar você de longe é tão ruim
             Bm            D
Te quero ao vivo e a cores aqui
   G  A  Bm  D
Aqui

[Primeira parte]
                   G              A
Por que você não sai daí e vem aqui?
          Bm                       D
Pode invadir, pode chegar, pode ficar
         G               A         Bm
No meu quarto, no meu abraço, apertado
         D                     G
Duvido que cê vai querer ir embora
        A
Não apavora
            Bm                      D
Depois do amor a gente vai fazendo hora
         G          A
E eu não   aguento mais
       Bm
Eu não    aguento mais

[Refrão]

         G             A
A tela fria desse celular
            Bm                    D
Só ver sua foto não vai me esquentar
        G                  A
Amar você de longe é tão ruim
             Bm            D
Te quero ao vivo e a cores aqui
   G   A    Bm  D
Aqui Iêêê, uôôôôô

   G   A    Bm  D
Aqui Iêêê, uôôôôô

[Segunda parte]

       G                 A
Então sai daí, sai daí, vem aqui, vem
Bm               D
Invadir, invadir o meu quarto
 G                A
Meu abraço apertado, vem, vem,
   Bm
Duvido que cê vai querer sair
      D
Por que você não sai daí,
 G                 A
Sai daí, sai daí, vem aqui, vem
Bm               D
Invadir, invadir o meu quarto
 G                     A
Meu abraço, meu abraço apertado
Bm
Eu não aguento mais

[Tab -Segunda parte]

Parte 1 de 2 (REPETE 3X)

       G       A    Bm      D
E|------x----0-------x----2-----------------|
B|---3--x----2----3--x----3-----------------|
G|---0--x----2----4--x----2-----------------|
D|---0--x----2----4--x----4-----------------|
A|------x--0----2----x--5-------------------|
E|-3----x------------x----------------------|

Parte 2 de 2 (FINAL DA SEGUNDA PARTE)
       G       A    Bm
E|------x----0--2---------------------------|
B|---3--x----2--3---------------------------|
G|---0--x----2--4---------------------------|
D|---0--x----2--4---------------------------|
A|------x--0----2---------------------------|
E|-3----x-----------------------------------|

[Refrão]

                 G             A
Olhar pra tela fria desse celular
            Bm                    D
Só ver sua foto não vai me esquentar
        G                  A
Amar você de longe é tão ruim
             Bm            D
Te quero ao vivo e a cores aqui
   G   A    Bm  D
Aqui Iêêê, uôôôôô

   G   A    Bm  D
Aqui Iêêê, uôôôôô
Acordes para:
    Composição: kauan / Lucas Santos / Rafael Torres Colaboração e revisão:

    0 comentários

    mostrar mais comentários

    Conseguiu tocar?

    53 tocaram 42 ainda não

    Grave um vídeo tocando Ao Vivo e a Cores (part. Anitta) e mande pra gente!

    00:00 / 00:00
    outros vídeos desta música
    repetir qualidade Automático
    Outros vídeos desta música
    00:00 / 00:00
    Automático
    Capítulos
    • Tocando a música
    • Apresentação / Equipamentos
    • Acordes da música
    • Tocando introdução
    • Dedilhado da introdução
    • Dedilhado - Parte 1 de 2
    • Dedilhado - Parte 2 de 2
    • Dicas da primeira parte
    • Tocando primeira parte
    • Dedilhado - Primeira parte (variação)
    • Dicas do refrão
    • Tocando refrão
    • Ritmo do refrão
    • Dicas da música
    • Tocando segunda parte
    • Dedilhado - Segunda Parte
    • Dedilhado - Parte 1 de 2
    • Dedilhado - Parte 2 de 2
    • Encerramento
    OK