Cifra Club

Aprenda

Cerveja, Sal e Limão

Matheus e Kauan

Cifra: Principal (violão e guitarra)
Tom: D
[Intro] D  A  Bm  A  G

[Primeira Parte]

D                   G
  Cerveja, sal e limão
     Bm7              A    
E no último volume o som
D                  G   
  Eu já perdi a noção do tempo
 Bm7                   A                      G  A                
Hoje eu não fui trabalhar e nem pretendo amanhã

[Refrão]

                      D
Que até agora eu não descobri
                           A
Quantas latas eu vou precisar
Pra te tirar de mim
                   Bm7
E aceitar o nosso triste fim
                            G           A
Nenhum bar da cidade vende mais pra mim

                      D
Que até agora eu não descobri
                           A
Quantas latas eu vou precisar
Pra te tirar de mim
                    Bm7
E aceitar o nosso triste fim
                            G
Nenhum bar da cidade vende mais pra mim
    A                      D
Prefere o prejuízo que me ver assim

( A  Bm7  G )

    A                      D
Prefere o prejuízo que me ver assim

[Solo] A  Bm7  G 

E|------------------------------------------|
B|-7-8-7-8-7--------------------------------|
G|-----------9-9-7-7/9-7-7/9----------------|
D|------------------------------------------|
A|------------------------------------------|
E|------------------------------------------|

E|------------------------------------------|
B|-7-8-7-8-7h8p7----------------------------|
G|---------------9-9-7-7/9---7-7h9-6~-------|
D|-------------------------9----------------|
A|------------------------------------------|
E|------------------------------------------|

[Primeira Parte]

D                   G
  Cerveja, sal e limão
     Bm7              A    
E no último volume o som
D                  G   
  Eu já perdi a noção do tempo
 Bm7                   A                      G  A                
Hoje eu não fui trabalhar e nem pretendo amanhã

[Refrão]

                      D
Que até agora eu não descobri
                           A
Quantas latas eu vou precisar
Pra te tirar de mim
                   Bm7
E aceitar o nosso triste fim
                            G           A
Nenhum bar da cidade vende mais pra mim

                      D
Que até agora eu não descobri
                           A
Quantas latas eu vou precisar
Pra te tirar de mim
                    Bm7
E aceitar o nosso triste fim
                            G
Nenhum bar da cidade vende mais pra mim
    A                      D
Prefere o prejuízo que me ver assim

( A  Bm7  G )

    A                      D
Prefere o prejuízo que me ver assim

( A  Bm  G )

    A                      D
Prefere o prejuízo que me ver assim

[Final] 

E|------------------------------------------|
B|-7-8-7-8-7--7-8-7-8-7---------------------|
G|----------------------9-7~----------------|
D|------------------------------------------|
A|------------------------------------------|
E|------------------------------------------|
Composição de Angelim / Matheus Aleixo / Os Parazin
Colaboração e revisão:
  • Thiago Almeida
  • Davi Queiroz
77.242 exibições
    • ½ Tom
    • A
    • Bb
    • B
    • C
    • Db
    • D
    • Eb
    • E
    • F
    • F#
    • G
    • Ab
  • Adicionar à lista

    0 comentários

    Mostrar mais comentários

    Conseguiu tocar?

    17 Tocaram 3 Ainda não

    Grave um vídeo tocando Cerveja, Sal e Limão e mande pra gente!

    00:00 / 00:00
    outros vídeos desta música
    repetir qualidade Automático
    Outros vídeos desta música
    00:00 / 00:00
    Automático

    Cifra Club Pro

    Aproveite o Cifra Club com benefícios exclusivos e sem anúncios
    7 dias grátis
    Cifra Club Pro
    Aproveite o Cifra Club com benefícios exclusivos e sem anúncios
    7 dias grátis
    OK