Cifra Club

Coração De Isca

Matheus e Kauan

Cifra: Principal (violão e guitarra)
tom: Em
[Intro] Em  Bm  D  A 

[Solo]

E|------------------------------------------|
B|---/9--9--8-6-8-8/9-----/9--9--8-6-8-8----|
G|------------------------------------------|
D|---/10-10-8-7-8-8/10----/10-10-8-7-8-8----|
A|------------------------------------------|
E|------------------------------------------|

E|------------------------------------------|
B|---/8-8-6-4-6-6/8-8-8-8-8-6-4-6-6---------|
G|------------------------------------------|
D|---/8-8-7-5-7-7/8-8-8-8-8-7-5-7-7---------|
A|------------------------------------------|
E|------------------------------------------|

E|------------------------------------------|
B|---/9--9--8-6-8-8/9-----------------------|
G|------------------------------------------|
D|---/10-10-8-7-8-8/10----------------------|
A|------------------------------------------|
E|------------------------------------------|

  Em7          Bm7         
Aquele eu te amo
               D9/F#          A9   
Parecia ser verdade em 
  Em7            Bm7                            
Aquele abraço apertado 
                       
Suspiro forçado 
             D9/F#               A9     
Então era saudade de alguém
                   Em7            
Tinha que ser logo eu 
                        Bm7      
A pessoa que mais te entendeu 
                             D9/F#     
Quando "cê" largou dele e sofreu 
                              A9     
Quem fez curativo em você fui eu
 
                   Em7      
Tinha que ser logo eu
                             Bm7       
Que escolheu pra cair na armadilha
      D9/F#                            A9             
Logo eu, que te amava e não via malícia

                        Em                  
Cê fez meu coração de isca
                     Bm             
Tinha um plano em vista
                       D        
Fiz a ponte pra ele voltar
                         A        
Eu só fiz o amor dele aumentar

                       Em
Cê fez meu coração de isca
                     Bm             
Tinha um plano em vista
                    D           
E no filme dele e você
                      A           
Eu Só fiz  papel de dublê 
                        Em              
Vai o oscar de melhor atriz
          Bm  D  A  Em
Pra você
00:00 / 00:00
Outros vídeos desta música
Repetir
Outros vídeos desta música
Composição de Everton Matos / Guilherme Ferraz / Diego Maradona / Paulo Henrique Pires / Ray Antonio / Sando Neto
Colaboração e revisão:
  • iago resende
2.419 exibições
    • ½ Tom
    • Am
    • Bbm
    • Bm
    • Cm
    • C#m
    • Dm
    • Ebm
    • Em
    • Fm
    • F#m
    • Gm
    • G#m
  • Adicionar à lista

    0 comentários

    Ver todos os comentários

    Entre para oCifra Club PRO

    Tenha acesso a benefícios exclusivos no App e no Site

    • Chega de anúncios

    • Prioridade de compra em lançamentos

    • Mais recursos no app do Afinador

    • Atendimento Prioritário

    • Descontos nos produtos Cifra Club

    • Ajude a produzir mais conteúdo

    00:00 / 00:00

    Cifra Club Pro

    Aproveite o Cifra Club com benefícios exclusivos e sem anúncios
    Cifra Club Pro
    Aproveite o Cifra Club com benefícios exclusivos e sem anúncios
    OK