Decide Aí

Matheus e Kauan

Composição: Matheus Aleixo/ Filipe Escandurras/ Felipe Oliver
Tom: B (com acordes na forma de G ) Capotraste na 4ª casa
Primeira Parte:

Em7
    O relógio tá girando, tá girando

Tá girando e eu aqui perdendo tempo
                  C9
Cheguei no meu limite

Se não mudar sua postura

Eu vou embora correndo
                      D
Já ta pronta a minha mala

E não to levando nada
            C9
Nada que é seu

Nada que me deu

Pré-refrão:

Em7
    Eu não vou te esquecer
                 D
Em questão de segundo

Mas pra facilitar pego minhas coisas
C9         D
   E sumo, eu sumo

Refrão:

       Em7
Decide aí
                                    D
Enquanto eu vou dar uma volta na cidade

Mas pense bem 
                          C9
Pra depois não se arrepender

No supermercado não vai me comprar
 D
Na farmácia não vende 

Remédio pra saudade

       Em7
Decide aí
                                    D
Enquanto eu vou dar uma volta na cidade

Mas pense bem 
                          C9
Pra depois não se arrepender

No supermercado não vai me comprar
 D
Na farmácia não vende 

Remédio pra saudade

Base Solo: Em7  D  C9  D
Solo:
Parte 1 de 4

E|-----2-3---0----3---0---3---0-----------------------|
B|---3------------------------------------------------|
G|-2-----4-0----4---0---4---0-------------------------|
D|----------------------------------------------------|
A|----------------------------------------------------|
E|----------------------------------------------------|

Parte 2 de 4

E|---2--------2-------2-------------------------------|
B|-------3--------3-------3---------------------------|
G|-2--------2-------2---------------------------------|
D|-----4--------4-------4-----------------------------|
A|----------------------------------------------------|
E|----------------------------------------------------|

Parte 3 de 4

E|---0--------0-------0-------------------------------|
B|-------1--------1-------1---------------------------|
G|-0--------0-------0---------------------------------|
D|-----2--------2-------2-----------------------------|
A|----------------------------------------------------|
E|----------------------------------------------------|

Parte 4 de 4

E|----------------------------------------------------|
B|---3------------------------------------------------|
G|--------2-------------------------------------------|
D|-4----4-----4---------------------------------------|
A|----------5-----------------------------------------|
E|----------------------------------------------------|


Primeira Parte:

                Em7
O relógio tá girando, tá girando

Tá girando e eu aqui perdendo tempo
                  C9
Cheguei no meu limite

Se não mudar sua postura

Eu vou embora correndo
                      D
Já ta pronta a minha mala

E não to levando nada
            C9
Nada que é seu

Nada que me deu

Pré-refrão:

Em7
    Eu não vou te esquecer
                 D
Em questão de segundo

Mas pra facilitar pego minhas coisas
C9         D
   E sumo, eu sumo

Refrão:

       Em7
Decide aí
                                    D
Enquanto eu vou dar uma volta na cidade

Mas pense bem 
                          C9
Pra depois não se arrepender

No supermercado não vai me comprar
 D
Na farmácia não vende 

Remédio pra saudade

       Em7
Decide aí
                                    D
Enquanto eu vou dar uma volta na cidade

Mas pense bem 
                          C9
Pra depois não se arrepender

No supermercado não vai me comprar
 D
Na farmácia não vende 
                  Em7
Remédio pra saudade
Página 1 / 1

Letras e título
Acordes e artista

resetar configurações