Expectativa x Realidade

Matheus e Kauan

Composição de: Danillo Dávilla / Elan Rúbio / Matheus Aleixo
tom: Ebm
[Intro] B  C#  A#m7  D#m7  C#

[primeira parte] 

            B            C#
Eu vou resumir minha saudade
           A#m7        D#m7
Em expectativa e realidade
C#         B             C#
   Tô esperando você voltar
          A#m7                    D#m7
Mas deve tá feliz demais pra lembrar

[pré-refrão] 

                          B                C#
Tô disfarçando a minha carência em mentira
                      A#m7             D#m7   
Sorriso falso, video fake, foto antiga
      C#             B
Tô inventando outra vida
     C#                          
Pra não ter que viver a minha

[refrão] 

D#m7                       B
    Expectativa: beijar você
                       F#
Realidade: chorar e beber

Até pensei em te esquecer
C#
   Mas dispensei, fazer o quê
D#m7                       B
    Expectativa: beijar você
                       F#
Realidade: chorar e beber

Até pensei em te esquecer
C#
   Mas dispensei, fazer o quê
   D#m7
Se ainda amo
           B              
Se ainda quero você sem querer

[Solo] B  C#  A#m7  D#m7   
       B  C#  A#m7  D#m7 

E|------------------------------------------|
B|------------------------------------------|
G|------------------------11-10-8-----------|
D|--------------------------------11--------|
A|-4h6-6-6-6p4~6/8~-4-----------------------|
E|------------------------------------------|

E|------------------------------------------|
B|-/9-9-9-9-7p6-7-9/11-9-7\6----------------|
G|---------------------------8--------------|
D|------------------------------------------|
A|------------------------------------------|
E|------------------------------------------|

E|------------------------------------------|
B|------------------------------------------|
G|-6h8-8-8-8-6h8/10------11-10-8------------|
D|-------------------------------11---------|
A|------------------------------------------|
E|------------------------------------------|

E|------------------------------------------|
B|-/9-9-9-9\7-6h7~--------------------------|
G|------------------------------------------|
D|------------------------------------------|
A|------------------------------------------|
E|------------------------------------------|

[pré-refrão] 

                          B                C#
Tô disfarçando a minha carência em mentira
                      A#m7             D#m7   
Sorriso falso, video fake, foto antiga
      C#             B
Tô inventando outra vida
     C#                          
Pra não ter que viver a minha

[refrão] 

D#m7                       B
    Expectativa: beijar você
                       F#
Realidade: chorar e beber

Até pensei em te esquecer
C#
   Mas dispensei, fazer o quê

D#m7                       B
    Expectativa: beijar você
                       F#
Realidade: chorar e beber

Até pensei em te esquecer
C#
   Mas dispensei, fazer o quê
   D#m7        B
Se eu ainda te amo

É sem querer

D#m7                       B
    Expectativa: beijar você
                       F#
Realidade: chorar e beber

Até pensei em te esquecer
C#
   Mas dispensei, fazer o quê
   D#m7
Se ainda amo
           B                F# 
Se ainda quero você sem querer
Página 1 / 1

Letras e título
Acordes e artista

resetar configurações
OK