Cifra Club

Aprenda

Mágica (part. Gusttavo Lima)

Matheus e Kauan

Cifra: Principal (violão e guitarra)
Tom: Db (forma dos acordes no tom de C) Capotraste na 1ª casa
[Intro] C  G  Am7  F

[Violão 1]

   C        G        Am7      F 
E|------------------------------------------|
B|-------1--------3--------1--1-------------|
G|-----0--------0--------0----2-------------|
D|---2--------0--------2------3-------------|
A|-3-----------------0----------------------|
E|----------3-----------------1-------------|

[Violão 2]

   C                   G
E|-3-3-3-------------3----------------------|
B|-3-3-3-5-3h5p3---3---3--------------------|
G|---------------5--------------------------|
D|------------------------------------------|
A|-3----------------------------------------|
E|------------------------------------------|

                   Am7  F
E|-------------------3----------------------|
B|-3-3-3-5-3h5p3---1----1-------------------|
G|-0-0-0---------5--------------------------|
D|------------------------------------------|
A|------------------------------------------|
E|------------------------------------------|

[Primeira Parte]

                     C
Eu já perdi muitos amigos

Por causa de você
                        G
Eu já perdi foi muitas noites de farra
                   Am7

Abri mão da minha melhor fase

Pra ficar grudado
F
  Apegado em você

[Pré-Refrão]

                            C
Se quer saber se eu me arrependo

Eu não
                     G
Se troco essa nossa vida

Troco não
                     Am7
Que longe de você é tudo mais ou menos

Se eu ganhar o mundo
 F
Sem você eu tô perdendo

[Refrão]

                       C
Que um beijo seu pesa mais, muito mais
                      G
Que um fim de semana na boate louco
                    Am7
E que ninguém satisfaz, não faz
                   F
A mágica que você faz com meu corpo

                       C
Que um beijo seu pesa mais, muito mais
                      G
Que um fim de semana na boate louco
                    Am7
E que ninguém satisfaz, não faz
                   F
A mágica que você faz com meu corpo
                              
Eu perdi tudo mas ganhei em dobro

[Solo] C  G  Am7  F

E|------------------------------------------|
B|-------------------------6/8--------------|
G|-7-7-7-7/9-7-5-4-5-5-5-5------7-----------|
D|------------------------------------------|
A|------------------------------------------|
E|------------------------------------------|

E|------------------------------------------|
B|------------------------------------------|
G|-9-9-9-9/10-9-7-5-5h7-7-7-7-7/9-7---------|
D|------------------------------------------|
A|------------------------------------------|
E|------------------------------------------|

E|------------------------------------------|
B|----------------------------6/8-----------|
G|-9-9-9-9h10-9-7-5-4/5-5-5-5-----9---------|
D|------------------------------------------|
A|------------------------------------------|
E|------------------------------------------|

E|------------------------------------------|
B|------------------------------------------|
G|-5-4h5p4\2-4/5----------------------------|
D|------------------------------------------|
A|------------------------------------------|
E|------------------------------------------|

[Pré-Refrão]

                            C
Se quer saber se eu me arrependo

Eu não
                     G
Se troco essa nossa vida

Troco não
                     Am7
Que longe de você é tudo mais ou menos

Se eu ganhar o mundo
 F
Sem você eu tô perdendo

[Refrão]

                       C
Que um beijo seu pesa mais, muito mais
                      G
Que um fim de semana na boate louco
                    Am7
E que ninguém satisfaz, não faz
                   F
A mágica que você faz com meu corpo

                       C
Que um beijo seu pesa mais, muito mais
                      G
Que um fim de semana na boate louco
                    Am7
E que ninguém satisfaz, não faz
                   F
A mágica que você faz com meu corpo
                              
Eu perdi tudo mas ganhei em dobro

[Final] C  G  Am7  F

E|------------------------------------------|
B|-------------------------6/8--------------|
G|-7-7-7-7/9-7-5-4-5-5-5-5------7-----------|
D|------------------------------------------|
A|------------------------------------------|
E|------------------------------------------|

E|------------------------------------------|
B|------------------------------------------|
G|-9-9-9-9/10-9-7-5-5h7-7-7-7-7/9-7---------|
D|------------------------------------------|
A|------------------------------------------|
E|------------------------------------------|

E|------------------------------------------|
B|----------------------------6/8-----------|
G|-9-9-9-9h10-9-7-5-4/5-5-5-5-----9---------|
D|------------------------------------------|
A|------------------------------------------|
E|------------------------------------------|

E|------------------------------------------|
B|------------------------------------------|
G|-5-4h5p4\2-4/5----------------------------|
D|------------------------------------------|
A|------------------------------------------|
E|------------------------------------------|

                             C
Eu perdi tudo mas ganhei em dobro
Composição de DIEGO FERRARI / Everton Matos / Guilherme Ferrari / Leo Saga / Matheus Aleixo / PAULO PIRES / Ray Antonio
Colaboração e revisão:
  • Thiago Almeida
  • Gustavo lima
58.637 exibições
    • ½ Tom
    • A
    • Bb
    • B
    • C
    • Db
    • D
    • Eb
    • E
    • F
    • F#
    • G
    • Ab
  • Adicionar à lista

    0 comentários

    Mostrar mais comentários

    Conseguiu tocar?

    9 Tocaram 4 Ainda não

    Grave um vídeo tocando Mágica (part. Gusttavo Lima) e mande pra gente!

    00:00 / 00:00
    outros vídeos desta música
    repetir qualidade Automático
    Outros vídeos desta música
    00:00 / 00:00
    Automático
    OK