Cifra Club

Mãos Travessas

Matheus e Kauan

Cifra: Principal
exibições 74.161
Tom: A
Intro:

      A                     E        F#m                      D
E|------------------------------|------------------------------|
B|------------------------------|------------------------------|
G|---------7/9-9---------9/11-9-|---------7/9-9---------9/11-9-|
D|-7-7-7-7-------7-7-7-7--------|-7-7-7-7-------7-7-7-7--------|
A|------------------------------|------------------------------|
E|------------------------------|------------------------------|


A
Não falam nada
D
Me escute agora, por favor
F#m
Deixa eu sentir

Seu coração bater
E
Que eu vou te proteger

A
Não fala nada
D

Segura a minha mão
F#m
Que eu não vou

Te deixar cair
E             D
Tenta me sentir

Pré Refrão:
Bm
As minhas mãos travessas

Você tenta controlar
D
Sorrindo me pedindo

Pra eu tentar me segurar

A
Não é a hora

E
De se entregar

Refrão:
              D
Eu já perdi o medo
              A
Eu tô no desespero
              E
Já contei todos os meus
             F#m
Segredos pra você
            D
Eu tô perdendo sono
             A
E já faz tanto tempo
               E
Que eu não ouço a sua voz
              F#m
Pedindo pra me ver

              D
Eu já perdi o medo
               A
Eu tô no desespero
              E
Já contei todos os meus
             F#m
Segredos pra você
            D
Eu tô perdendo sono
                A
E já faz tanto tempo G|-2-4/6-4-|
               E
Que eu não ouço a sua voz
              F#m
Pedindo pra me ver

      A                     E        F#m                      D
E|------------------------------|------------------------------|
B|------------------------------|------------------------------|
G|---------7/9-9---------9/11-9-|---------7/9-9---------9/11-9-|
D|-7-7-7-7-------7-7-7-7--------|-7-7-7-7-------7-7-7-7--------|
A|------------------------------|------------------------------|
E|------------------------------|------------------------------|


Bm
As minhas mãos travessas

Você tenta controlar
D
Sorrindo me pedindo

Pra eu tentar me segurar

A
Não é a hora

E
De se entregar

Refrão:
              D
Eu já perdi o medo
              A
Eu tô no desespero
              E
Já contei todos os meus
             F#m
Segredos pra você
            D
Eu tô perdendo sono
             A
E já faz tanto tempo
               E
Que eu não ouço a sua voz
              F#m
Pedindo pra me ver

              D
Eu já perdi o medo
               A
Eu tô no desespero
              E
Já contei todos os meus
             F#m
Segredos pra você
            D
Eu tô perdendo sono
              A
E já faz tanto tempo
               E
Que eu não ouço a sua voz
              F#m
Pedindo pra me ver

      A                     E
E|------------------------------|
B|------------------------------|
G|---------7/9-9---------9/11-9-|
D|-7-7-7-7-------7-7-7-7--------|
A|------------------------------|
E|------------------------------|


              D
Eu já perdi o medo
               A
Eu tô no desespero
              E
Já contei todos os meus
             F#m
Segredos pra você
            D
Eu tô perdendo sono
              A
E já faz tanto tempo
               E
Que eu não ouço a sua voz
              F#m
Pedindo pra me ver

      A                     E        F#m                      D
E|------------------------------|------------------------------|
B|------------------------------|------------------------------|
G|---------7/9-9---------9/11-9-|---------7/9-9---------9/11-9-|
D|-7-7-7-7-------7-7-7-7--------|-7-7-7-7-------7-7-7-7--------|
A|------------------------------|------------------------------|
E|------------------------------|------------------------------|
Acordes para:

    0 comentários

      mostrar mais comentários

      Conseguiu tocar?

      10tocaram2ainda não

      Grave um vídeo tocando Mãos Travessas e mande pra gente!

      00:00 / 00:00
      outros vídeos desta música
      repetirqualidadeautomática
      Outro vídeos desta música
        00:00 / 00:00
        automática
        OK