Te Assumi Pro Brasil

Matheus e Kauan

Composição: Matheus Aleixo / Kauan Aleixo / Filipe Escandurras / Tierry / Daniel Silveira
Tom: A (com acordes na forma de G ) Capotraste na 2ª casa
Intro 2x: C9  D5  Em7  D5
       
Solo Intro:

Parte 1


E|------------------------------5-4-------------------|
B|----------5--------5--------------7-5---------------|
G|-6--6-7-6----6-7-6----6-7-6-------------------------|
D|----------------------------7-----------------------|
A|----------------------------------------------------|
E|----------------------------------------------------|


Parte 2


E|----------------------------------------------------|
B|----------5--------5--------------------------------|
G|-6--6-7-6----6-7-6----6-----------------------------|
D|------------------------7-7h9-----------------------|
A|----------------------------------------------------|
E|----------------------------------------------------|


Primeira Parte:

G5                    C9
   Ser feliz pra mim não custa caro
Em7                D5
    Se você tá do lado

Eu me sinto tão bem

G5                 C9
   Você sempre me ganha na manha
Em7                  D5
    Que mistério cê tem

Pré-refrão:

G5                 C9
Arrumei a mala há mais de uma semana
 Em7
Só falta você me chamar
D5
   Pra eu fugir com você
 G5                C9
Mudei meu status, já tô namorando
Em7
Antes de você aceitar
D5                      C9
   Já te assumi pro Brasil
    D5
Iê iêêê..

Refrão:

                C9
Por que te amo, eu não sei
 D5            Em7          D5
Mas quero te amar cada vez mais
               C9
O que na vida ninguém fez
 D5                      Em7  D5
Você fez em menos de um mês

                C9
Por que te amo, eu não sei
 D5            Em7          D5
Mas quero te amar cada vez mais
               C9
O que na vida ninguém fez
 D5                      Em7
Você fez em menos de um mês

Base solo 2x:

C9  D5  Em7  D5

Solo:

Parte 1


E|-------------------------5-4------------------------|
B|-5---5---5-7-5---------------7-5--------------------|
G|---6---6-------6--4-6-4----------6------------------|
D|----------------------------------------------------|
A|----------------------------------------------------|
E|----------------------------------------------------|


Parte 2


E|----------------------------------------------------|
B|-5---5---5-7-5------------5-------------------------|
G|---6---6-------6--4-6-4-6---6-4---------------------|
D|--------------------------------7-4-----------------|
A|----------------------------------------------------|
E|----------------------------------------------------|


Pré-refrão:

G5                 C9
Arrumei a mala há mais de uma semana
 Em7
Só falta você me chamar
D5
   Pra eu fugir com você
 G5                C9
Mudei meu status, já tô namorando
Em7
Antes de você aceitar
D5                      C9
   Já te assumi pro Brasil
    D5
Iê iêêê..

Refrão:

                C9
Por que te amo, eu não sei
 D5            Em7          D5
Mas quero te amar cada vez mais
               C9
O que na vida ninguém fez
 D5                      Em7  D5
Você fez em menos de um mês

                C9
Por que te amo, eu não sei
 D5            Em7          D5
Mas quero te amar cada vez mais
               C9
O que na vida ninguém fez
 D5                      Em7
Você fez em menos de um mês

Final:


E|----------------------------------------------------|
B|----------------------------------------------------|
G|----------------------------------------------------|
D|----------------------------------------------------|
A|---------------------2---3-2------------------------|
E|-0-0-3-2-2-2-5-3-3-3---5-----5-3-0------------------|
Página 1 / 1

Letras e título
Acordes e artista

resetar configurações
variar acorde