Cifra Club

Navegantes da Ilusão

Mato Seco

Cifra: Principal
exibições 188.247
Tom: F
solinho que o teclado faz no inicio
E|---------------------------------------------------------------------------
B|------------10-----------------10-----------10--10------------11-10--------
G|-----------10-----10---------10-----10---------------12----------------12--
D|---12------------------12--------------------------------------------------
A|---------------------------------------------------------------------------
E|---------------------------------------------------------------------------

Obs.: a música inteira é Dm / Am
     

    Dm                                 Am
Não me faz andar pra trás e nem ficar parado 
O seu mal pensado o seu mal olhado
O seu mal pensado o seu mal olhado 
Não me faz andar pra trás e nem ficar parado
O seu mal pensado o seu mal olhado 
Não me faz andar pra trás e nem ficar parado

Da escuridão pare agora de criticar seu irmão
Pois você pode fazer muito mais que isso
E não só comentários sem sentido e atitudes em vão
Pois muito vi em minha caminhada navegantes da ilusão
Mas nós piratas dos bons pensamentos e princípios do bem
Levaremos luz onde houver escuridão

O seu mal pensado o seu mal olhado 
Não me faz andar pra trás e nem ficar parado
O seu mal pensado o seu mal olhado 
Não me faz andar pra trás e nem ficar parado 

Ao passar ao seu lado
Pensa que nada somos
Pelo contrário
Somos o que somos 
Ao que somos o que somos 
Nossas vidas são traçadas pelas mesmas linhas 
Que agrupam todas as vidas
Formando um só elo
Comandado por jah comandado por jah 

Então não me deseje o mal
Pois todo mundo é igual
Emane suas positivas vibrações a vida
De força ao bem e não ao mal
E não se torne um navegante da ilusão 
Pois nós piratas dos bons pensamentos e princípios do bem
Não seremos indiferentes com ninguém
E não se torne um navegante da ilusão 
Um pobre hipócrita que vai contra o bem, um pobre hipócrita
Pois nós piratas dos bons pensamentos e princípios do bem
Não seremos indiferentes com ninguém

final

E|---------------------------------------------------------------------------------------------------------
B|---------10-----------------3-b------------------------------------10------------------------------------ 
G|-------10-----10--------------------------10--------------------10------10------------------------------- 
D|-12------------------12----------12------------12---------12--------------------12-----------------------
A|-----------------------------------12---------------12---------------------------------5-7-8-7-5---------
E|-----------------------------------------------------------------------------------------5-------------5-


legenda: b - Bend
Acordes para:
    Colaboração e revisão:

    0 comentários

      mostrar mais comentários

      Conseguiu tocar?

      22tocaram2ainda não

      Grave um vídeo tocando Navegantes da Ilusão e mande pra gente!

      00:00 / 00:00
      outros vídeos desta música
      repetirqualidadeautomática
      Outro vídeos desta música
        00:00 / 00:00
        automática
        OK