Going All The Way

Matthew Good

Composição de: Dave Genn / Matthew Good
tom: G
Album: Beautiful Midnight
Transcribed by: Myles Bell
Email: *

This is a sweet song, listen to the song for timing and chord struming, if you
don't have this CD get it!!. Please send me any corrections, or send me your
MGB tabs and ill try to correct them for you.  This song sounds sweet on a
12 string.

Intro:
------------------------0-----------------------------0-----------------------|
---------3----------------3------------3----------------3------------1--------|
-----0-----0--------0-------0------0-----0--------2--------------0-----0------|
-5-5---5-----5--4-4---4--------2-2---2-----2--0-0---0----------3---3----------|
-----------------------------------------------------------2-3-----------3-2--|
------------------------------------------------------------------------------|

-------0----------------------------------------------------------------------|
---------1-------------0---------0--------------------------------------------|
---0-------0-------5-----5-----5---5---5---2----------------------------------|
--0--0---------7-7---7-----7-7-------7---4------------------------------------|
------------------------------------------------------------------------------|
------------------------------------------------------------------------------|

Verse:3x

(Two ways one is barre chords the other which i prefer is open)

-3---5---0---5--------------------------3---2---0---2-------------------------|
-3---7---0---7--------------------------3---3---0---3-------------------------|
-4---7---0---7--------------------------0---2---0---2-------------------------|
-5---7---2---7--------------------------0---0---2---0-------------------------|
-5---5---2---5--------------------------2-------2-----------------------------|
-3-------0------------------------------3-------0-----------------------------|

After three times through the above play this, do the whole thing once then go
into the intro again and repeat again, then go into the chorus.
(again two ways)

-3---3---5------------------------------0----3-----0--------------------------|
-5---3---5------------------------------1----3-----1--------------------------|
-5---4---5------------------------------0----0-----2--------------------------|
-5---5---7------------------------------2----0-----2--------------------------|
-3---5---7------------------------------3----2-----0--------------------------|
-----3---5------------------------------3----3--------------------------------|

Chorus:

(Use barre chords if you want by i think the open chords have a much
more rich fuller sound.)

--0---3---2-------------------------------------------------------------------|
--1---3---3-------------------------------------------------------------------|
--0---0---2-------------------------------------------------------------------|
--2---0---0-------------------------------------------------------------------|
--3---2-----------------------------------------------------------------------|
--3---3-----------------------------------------------------------------------|

I'll try to get the and and post it.
Página 1 / 1

Letras e título
Acordes e artista

resetar configurações
OK