The Future Is X-rated

Matthew Good

Composição de: Dave Genn / Matthew Good
tom: F#

intro:
E|------------------------------------------------------------------------------------------|
B|------------------------------------------------------------------------------------------|
G|----X--X-----X--X--X-----X-X-----X--X--X----X---------------------------------------------|
D|----X--X-----X--X--X-----X-X-----X--X--X----X---------------------------------------------|
A|----2--2-----2--2--2-----5--5----5--5--5--s-6---------------------------------------------|
E|----2--2-----2--2--2--s--5--5----5--5--5--s-6---------------------------------------------|

riff 1:
E|------------------------------------------------------------------------------------------|
B|------------------------------------------------------------------------------------------|
G|----X--X-----X--X--X-----X-X-----X--X--X--------------------------------------------------|
D|----X--X-----X--X--X-----X-X-----X--X--X--------------------------------------------------|
A|----2--2-----2--2--2-----5--5----5--5--5--------------------------------------------------|
E|----2--2-----2--2--2--s--5--5----5--5--5--------------------------------------------------|

lick 3:
E|--2-2-h4p3p2------------------------------------------------------------------------------|
B|------------------------------------------------------------------------------------------|
G|------------------------------------------------------------------------------------------|
D|------------------------------------------------------------------------------------------|
A|------------------------------------------------------------------------------------------|
E|------------------------------------------------------------------------------------------|

F#-2331XX
A-4665XX
Página 1 / 1

Letras e título
Acordes e artista

resetar configurações
OK