Cifra Club

Aprenda

Jesus É o Caminho

Mauro Henrique

Cifra: Principal (violão e guitarra)
tom: D
D|---------------------------|
A|---------------------------|
G|----7---7---7---7---7---7--|
D|--7---7---7---7---7---7----|
A|---------------------------|
D|---------------------------|

                   A4/E

D|-------0--0--0--0----0----0---0------0--|--
A|------0---0--0--0----0----0---0------0--|--
G|-----7----7--7--7----7----7/9-9/10/9-7--|--
D|----7-----7--7--7----7----7/9-9/10/9-7--|--
A|---0------0--0--0----0----0---0------0--|--
D|--0-------0--0--0----0----0---0------0--|--

                 A9/B                              Em/A

--|--0--0--0--0--0--0--0----0--0--|--0--0--0--0--0--0--0----0--0--
--|--0--0--0--0--0--0--0----0--0--|--0--0--0--0--0--0--0----0--0--
--|--7--7--7--7--7--7--6----6--6--|--0--0--0--0--0--0--0----0--0--
--|--7--7--7--7--7--7--7----7--7--|--5--5--5--5--5--5--4----4--4--
--|--X--X--X--X--X--X--X----X--X--|--X--X--X--X--X--X--5----5--5--
--|--7--7--7--7--7--7--7----7--7--|--5--5--5--5--5--5--5----5--5--

--0----0--0--0--0--0--0--0----0--0--|
--0----0--0--0--0--0--0--0----0--0--|
--0----0--0--0--0--0--0--0----0--0--|
--7/5--5--5--5--5--5--5--4----4--4--|  (2x)
--X----X--X--X--X--X--X--5----5--5--|
--7/5--5--5--5--5--5--5--5----5--5--|

D5                       A/D
  Não se turbe o vosso coração
                            D4(7M)
  Crede em Deus e também em mim
                               E5/C#    A/D
  Na casa de meu pai há muitas moradas
D5                              A/D
  Se não fosse assim, eu não teria dito
                      D4(7M)
  Vou preparar-vos um lugar
                  D5/A              A/D
  Eu virei e vos levarei para mim mesmo
D5               A/D                D4(7M)
  Vós conheceis o caminho para onde eu vou                               
  EU SOU O CAMINHO, A VERDADE E A VIDA
D5/A                 A/D
  Ninguém vem ao pai, a não ser por mim
D5                     A/D
  Em verdade eu vos digo, porque eu vou para o pai
Em/A                         D4(7M)          A/D
  Mas aquele que crer em mim, obras maiores fará

( D5   A/D  D4(7M)   D5/A   A/D  ) (2x)

D5                       A/D
  Se me amais verdadeiramente
                         D4(7M)
  Guardareis os meus mandamentos
                               D5/A        A/D
  Eu rogarei ao pai, e ele vos dará o consolador
D5                        A/D
  O espírito da verdade que o mundo não pode receber
D4(7M)
  Mas ele habita em vós
  D5/A            A/D
  E estará em vós pra sempre


D5
  Aquele que tem os meus mandamentos
D5             D4(7M)                D5/A    A/D
  E os guarda, esse é o que me ama
D4(7M)
  E se alguém me amar
A/D
  Será amado por meu pai
D4(7M)
  E eu também o amarei
  D4(7M)    A/D     D5   A/D   D5(7M*   D5/A   A/D
  E me manifestarei a ele...      a ele...
D5                   A/D
  Quero te amar mais senhor...
                      D4(7M)      D5/A    A/D
  Quero te amar mais senhor...
D5                  A/D
  Quero te amar mais senhor...
                      D4(7M)      D5/A    A/D
  Quero te amar mais senhor...

D5           A/D               D4(7M)
  La, la, la, La...  La, la, la, La...
              D/A    A/D
  La, la, la, la...

( D5   A/D   D4(7M)   D5/A   A/D  ) (2x)
Compositor não encontrado.
Colaboração e revisão:
  • Will Santos
  • Wellington Silva
20.112 exibições
    • ½ Tom
    • A
    • Bb
    • B
    • C
    • Db
    • D
    • Eb
    • E
    • F
    • F#
    • G
    • Ab
  • Adicionar à lista

    0 comentários

    Ver todos os comentários

    Conseguiu tocar?

    1 Tocaram 1 Ainda não

    Grave um vídeo tocando Jesus É o Caminho e nos envie!

    00:00 / 00:00
    Outros vídeos desta música
    Repetir Qualidade Automático
    Outros vídeos desta música
    00:00 / 00:00
    Automático

    Cifra Club Pro

    Aproveite o Cifra Club com benefícios exclusivos e sem anúncios
    Cifra Club Pro
    Aproveite o Cifra Club com benefícios exclusivos e sem anúncios
    OK